  0
SECTION
  2
HEADER
  9
$ACADVER
  1
AC1018
  9
$ACADMAINTVER
 70
   104
  9
$DWGCODEPAGE
  3
ANSI_1250
  9
$AUTHOR
  1
A.Godlewski
  9
$LASTSAVEDBY
  1
Adam
  9
$CUSTOMPROPERTYTAG
  1
Menadżer
  9
$CUSTOMPROPERTY
  1

  9
$CUSTOMPROPERTYTAG
  1
Firma
  9
$CUSTOMPROPERTY
  1

  9
$CUSTOMPROPERTYTAG
  1
Kategoria
  9
$CUSTOMPROPERTY
  1

  9
$CUSTOMPROPERTYTAG
  1
Numer części
  9
$CUSTOMPROPERTY
  1
Montaż ZK na mur
  9
$CUSTOMPROPERTYTAG
  1
Opis
  9
$CUSTOMPROPERTY
  1

  9
$CUSTOMPROPERTYTAG
  1
Projekt
  9
$CUSTOMPROPERTY
  1

  9
$CUSTOMPROPERTYTAG
  1
Projektant
  9
$CUSTOMPROPERTY
  1
A.Godlewski
  9
$CUSTOMPROPERTYTAG
  1
Inżynier
  9
$CUSTOMPROPERTY
  1
A. Godlewski
  9
$CUSTOMPROPERTYTAG
  1
Zatwierdził
  9
$CUSTOMPROPERTY
  1
A. Godlewski
  9
$CUSTOMPROPERTYTAG
  1
Centrum kosztów
  9
$CUSTOMPROPERTY
  1

  9
$CUSTOMPROPERTYTAG
  1
Dostawca
  9
$CUSTOMPROPERTY
  1

  9
$CUSTOMPROPERTYTAG
  1
Stan użytkownika
  9
$CUSTOMPROPERTY
  1

  9
$CUSTOMPROPERTYTAG
  1
Stan projektu
  9
$CUSTOMPROPERTY
  1
PracaWToku
  9
$CUSTOMPROPERTYTAG
  1
Sprawdził
  9
$CUSTOMPROPERTY
  1

  9
$CUSTOMPROPERTYTAG
  1
Zatwierdził konstrukcję
  9
$CUSTOMPROPERTY
  1

  9
$CUSTOMPROPERTYTAG
  1
Zatwierdził do produkcji
  9
$CUSTOMPROPERTY
  1

  9
$CUSTOMPROPERTYTAG
  1
zastąpiony przez rys. nr
  9
$CUSTOMPROPERTY
  1

  9
$CUSTOMPROPERTYTAG
  1
zastępuje rys. nr
  9
$CUSTOMPROPERTY
  1

  9
$CUSTOMPROPERTYTAG
  1
inwestor
  9
$CUSTOMPROPERTY
  1

  9
$CUSTOMPROPERTYTAG
  1
nr zlec
  9
$CUSTOMPROPERTY
  1
//
  9
$CUSTOMPROPERTYTAG
  1
podzialka
  9
$CUSTOMPROPERTY
  1
1:18
  9
$INSBASE
 10
0.0
 20
0.0
 30
0.0
  9
$EXTMIN
 10
556.9570158143598
 20
2015.415265735595
 30
0.0
  9
$EXTMAX
 10
3418.512474811497
 20
5645.316386065037
 30
0.0
  9
$LIMMIN
 10
0.0
 20
0.0
  9
$LIMMAX
 10
3780.0
 20
5346.0
  9
$ORTHOMODE
 70
     0
  9
$REGENMODE
 70
     1
  9
$FILLMODE
 70
     1
  9
$QTEXTMODE
 70
     0
  9
$MIRRTEXT
 70
     0
  9
$LTSCALE
 40
18.0
  9
$ATTMODE
 70
     1
  9
$TEXTSIZE
 40
0.2
  9
$TRACEWID
 40
0.05
  9
$TEXTSTYLE
  7
Standard
  9
$CLAYER
  8
0
  9
$CELTYPE
  6
ByLayer
  9
$CECOLOR
 62
   256
  9
$CELTSCALE
 40
1.0
  9
$DISPSILH
 70
     0
  9
$DIMSCALE
 40
1.0
  9
$DIMASZ
 40
1.799999999999999
  9
$DIMEXO
 40
0.0625
  9
$DIMDLI
 40
0.38
  9
$DIMRND
 40
0.0
  9
$DIMDLE
 40
0.0
  9
$DIMEXE
 40
0.18
  9
$DIMTP
 40
0.0
  9
$DIMTM
 40
0.0
  9
$DIMTXT
 40
0.2000000029802322
  9
$DIMCEN
 40
0.09
  9
$DIMTSZ
 40
0.0
  9
$DIMTOL
 70
     0
  9
$DIMLIM
 70
     0
  9
$DIMTIH
 70
     1
  9
$DIMTOH
 70
     1
  9
$DIMSE1
 70
     0
  9
$DIMSE2
 70
     0
  9
$DIMTAD
 70
     0
  9
$DIMZIN
 70
     0
  9
$DIMBLK
  1

  9
$DIMASO
 70
     1
  9
$DIMSHO
 70
     1
  9
$DIMPOST
  1

  9
$DIMAPOST
  1

  9
$DIMALT
 70
     0
  9
$DIMALTD
 70
     2
  9
$DIMALTF
 40
25.4
  9
$DIMLFAC
 40
1.0
  9
$DIMTOFL
 70
     0
  9
$DIMTVP
 40
0.0
  9
$DIMTIX
 70
     0
  9
$DIMSOXD
 70
     0
  9
$DIMSAH
 70
     0
  9
$DIMBLK1
  1

  9
$DIMBLK2
  1

  9
$DIMSTYLE
  2
Standard
  9
$DIMCLRD
 70
     0
  9
$DIMCLRE
 70
     0
  9
$DIMCLRT
 70
     0
  9
$DIMTFAC
 40
1.0
  9
$DIMGAP
 40
0.09
  9
$DIMJUST
 70
     0
  9
$DIMSD1
 70
     0
  9
$DIMSD2
 70
     0
  9
$DIMTOLJ
 70
     1
  9
$DIMTZIN
 70
     0
  9
$DIMALTZ
 70
     0
  9
$DIMALTTZ
 70
     0
  9
$DIMUPT
 70
     0
  9
$DIMDEC
 70
     4
  9
$DIMTDEC
 70
     4
  9
$DIMALTU
 70
     2
  9
$DIMALTTD
 70
     2
  9
$DIMTXSTY
  7
Standard
  9
$DIMAUNIT
 70
     0
  9
$DIMADEC
 70
     0
  9
$DIMALTRND
 40
0.0
  9
$DIMAZIN
 70
     0
  9
$DIMDSEP
 70
    46
  9
$DIMATFIT
 70
     3
  9
$DIMFRAC
 70
     0
  9
$DIMLDRBLK
  1

  9
$DIMLUNIT
 70
     2
  9
$DIMLWD
 70
    -2
  9
$DIMLWE
 70
    -2
  9
$DIMTMOVE
 70
     0
  9
$LUNITS
 70
     2
  9
$LUPREC
 70
     2
  9
$SKETCHINC
 40
0.1
  9
$FILLETRAD
 40
0.0
  9
$AUNITS
 70
     0
  9
$AUPREC
 70
     0
  9
$MENU
  1
.
  9
$ELEVATION
 40
0.0
  9
$PELEVATION
 40
0.0
  9
$THICKNESS
 40
0.0
  9
$LIMCHECK
 70
     0
  9
$CHAMFERA
 40
0.0
  9
$CHAMFERB
 40
0.0
  9
$CHAMFERC
 40
0.0
  9
$CHAMFERD
 40
0.0
  9
$SKPOLY
 70
     0
  9
$TDCREATE
 40
2457149.274295937
  9
$TDUCREATE
 40
2457149.190962605
  9
$TDUPDATE
 40
2457149.274841204
  9
$TDUUPDATE
 40
2457149.191507870
  9
$TDINDWG
 40
0.0002609722
  9
$TDUSRTIMER
 40
0.0002609259
  9
$USRTIMER
 70
     1
  9
$ANGBASE
 50
0.0
  9
$ANGDIR
 70
     0
  9
$PDMODE
 70
     0
  9
$PDSIZE
 40
0.0
  9
$PLINEWID
 40
0.0
  9
$SPLFRAME
 70
     0
  9
$SPLINETYPE
 70
     6
  9
$SPLINESEGS
 70
     8
  9
$HANDSEED
  5
640
  9
$SURFTAB1
 70
     6
  9
$SURFTAB2
 70
     6
  9
$SURFTYPE
 70
     6
  9
$SURFU
 70
     6
  9
$SURFV
 70
     6
  9
$UCSBASE
  2

  9
$UCSNAME
  2

  9
$UCSORG
 10
0.0
 20
0.0
 30
0.0
  9
$UCSXDIR
 10
1.0
 20
0.0
 30
0.0
  9
$UCSYDIR
 10
0.0
 20
1.0
 30
0.0
  9
$UCSORTHOREF
  2

  9
$UCSORTHOVIEW
 70
     0
  9
$UCSORGTOP
 10
0.0
 20
0.0
 30
0.0
  9
$UCSORGBOTTOM
 10
0.0
 20
0.0
 30
0.0
  9
$UCSORGLEFT
 10
0.0
 20
0.0
 30
0.0
  9
$UCSORGRIGHT
 10
0.0
 20
0.0
 30
0.0
  9
$UCSORGFRONT
 10
0.0
 20
0.0
 30
0.0
  9
$UCSORGBACK
 10
0.0
 20
0.0
 30
0.0
  9
$PUCSBASE
  2

  9
$PUCSNAME
  2

  9
$PUCSORG
 10
0.0
 20
0.0
 30
0.0
  9
$PUCSXDIR
 10
1.0
 20
0.0
 30
0.0
  9
$PUCSYDIR
 10
0.0
 20
1.0
 30
0.0
  9
$PUCSORTHOREF
  2

  9
$PUCSORTHOVIEW
 70
     0
  9
$PUCSORGTOP
 10
0.0
 20
0.0
 30
0.0
  9
$PUCSORGBOTTOM
 10
0.0
 20
0.0
 30
0.0
  9
$PUCSORGLEFT
 10
0.0
 20
0.0
 30
0.0
  9
$PUCSORGRIGHT
 10
0.0
 20
0.0
 30
0.0
  9
$PUCSORGFRONT
 10
0.0
 20
0.0
 30
0.0
  9
$PUCSORGBACK
 10
0.0
 20
0.0
 30
0.0
  9
$USERI1
 70
     0
  9
$USERI2
 70
     0
  9
$USERI3
 70
     0
  9
$USERI4
 70
     0
  9
$USERI5
 70
     0
  9
$USERR1
 40
0.0
  9
$USERR2
 40
0.0
  9
$USERR3
 40
0.0
  9
$USERR4
 40
0.0
  9
$USERR5
 40
0.0
  9
$WORLDVIEW
 70
     1
  9
$SHADEDGE
 70
     3
  9
$SHADEDIF
 70
    70
  9
$TILEMODE
 70
     1
  9
$MAXACTVP
 70
    64
  9
$PINSBASE
 10
0.0
 20
0.0
 30
0.0
  9
$PLIMCHECK
 70
     0
  9
$PEXTMIN
 10
0.0
 20
0.0
 30
0.0
  9
$PEXTMAX
 10
3780.0
 20
5346.0
 30
0.0
  9
$PLIMMIN
 10
0.0
 20
0.0
  9
$PLIMMAX
 10
3780.0
 20
5346.0
  9
$UNITMODE
 70
     0
  9
$VISRETAIN
 70
     1
  9
$PLINEGEN
 70
     0
  9
$PSLTSCALE
 70
     1
  9
$TREEDEPTH
 70
  3020
  9
$CMLSTYLE
  2
Standard
  9
$CMLJUST
 70
     0
  9
$CMLSCALE
 40
1.0
  9
$PROXYGRAPHICS
 70
     1
  9
$MEASUREMENT
 70
     1
  9
$CELWEIGHT
370
    -1
  9
$ENDCAPS
280
     0
  9
$JOINSTYLE
280
     0
  9
$LWDISPLAY
290
     0
  9
$INSUNITS
 70
     4
  9
$HYPERLINKBASE
  1

  9
$STYLESHEET
  1

  9
$XEDIT
290
     1
  9
$CEPSNTYPE
380
     0
  9
$PSTYLEMODE
290
     1
  9
$FINGERPRINTGUID
  2
{52CB0384-13FE-4685-8446-23D2A4F4A49F}
  9
$VERSIONGUID
  2
{0BED2F1A-A056-4C73-A9E5-1DDD6D76DDE4}
  9
$EXTNAMES
290
     1
  9
$PSVPSCALE
 40
0.0
  9
$OLESTARTUP
290
     0
  9
$SORTENTS
280
   127
  9
$INDEXCTL
280
     0
  9
$HIDETEXT
280
     1
  9
$XCLIPFRAME
290
     0
  9
$HALOGAP
280
     0
  9
$OBSCOLOR
 70
   257
  9
$OBSLTYPE
280
     0
  9
$INTERSECTIONDISPLAY
280
     0
  9
$INTERSECTIONCOLOR
 70
   257
  9
$DIMASSOC
280
     1
  9
$PROJECTNAME
  1

  0
ENDSEC
  0
SECTION
  2
CLASSES
  0
CLASS
  1
ACDBDICTIONARYWDFLT
  2
AcDbDictionaryWithDefault
  3
ObjectDBX Classes
 90
        0
 91
        1
280
     0
281
     0
  0
CLASS
  1
MATERIAL
  2
AcDbMaterial
  3
ObjectDBX Classes
 90
     1153
 91
        3
280
     0
281
     0
  0
CLASS
  1
VISUALSTYLE
  2
AcDbVisualStyle
  3
ObjectDBX Classes
 90
     4095
 91
       24
280
     0
281
     0
  0
CLASS
  1
SCALE
  2
AcDbScale
  3
ObjectDBX Classes
 90
     1153
 91
       17
280
     0
281
     0
  0
CLASS
  1
TABLESTYLE
  2
AcDbTableStyle
  3
ObjectDBX Classes
 90
     4095
 91
        1
280
     0
281
     0
  0
CLASS
  1
MLEADERSTYLE
  2
AcDbMLeaderStyle
  3
ACDB_MLEADERSTYLE_CLASS
 90
     4095
 91
        1
280
     0
281
     0
  0
CLASS
  1
DICTIONARYVAR
  2
AcDbDictionaryVar
  3
ObjectDBX Classes
 90
        0
 91
       13
280
     0
281
     0
  0
CLASS
  1
CELLSTYLEMAP
  2
AcDbCellStyleMap
  3
ObjectDBX Classes
 90
     1152
 91
        2
280
     0
281
     0
  0
CLASS
  1
AMGSETTINGSOBJ
  2
AmgSettingsObj
  3
"AcadM|Product Description: AutoCAD Mechanical|Company: Autodesk, Inc."
 90
     1024
 91
        2
280
     0
281
     0
  0
CLASS
  1
ACME_DOCUMENT
  2
AcMeDbDoc
  3
AcMeServices
 90
     1024
 91
        1
280
     0
281
     0
  0
CLASS
  1
ACMESCOPE
  2
AcMeScope
  3
AcMeServices
 90
     1024
 91
        1
280
     0
281
     0
  0
CLASS
  1
ACMECOMMANDHISTORY
  2
AcMeCommandHistory
  3
AcMeServices
 90
     1024
 91
        1
280
     0
281
     0
  0
CLASS
  1
ACIMSYSVARMAN
  2
AcImSysVarManager
  3
AcMeServices
 90
     1024
 91
        4
280
     0
281
     0
  0
CLASS
  1
ACIMINTSYSVAR
  2
AcImIntSysVar
  3
AcMeServices
 90
     1024
 91
       27
280
     0
281
     0
  0
CLASS
  1
ACMESTATEMGR
  2
AcMeStateMgr
  3
AcMeServices
 90
     1024
 91
        1
280
     0
281
     0
  0
CLASS
  1
ACDBENTITYCACHE
  2
AcMeEntityCache
  3
AcMeServices
 90
     1024
 91
        1
280
     0
281
     0
  0
CLASS
  1
ACGREFMASTER
  2
AcGrefMaster
  3
AcAttribServices
 90
     1024
 91
        1
280
     0
281
     0
  0
CLASS
  1
AM_DRAWING_MGR
  2
AcDmDwgMgr
  3
AcMechDwgViewMgmt
 90
     1024
 91
        1
280
     0
281
     0
  0
CLASS
  1
AM_DWG_DOCUMENT
  2
AcDmDwgDocument
  3
AcMechDwgViewMgmt
 90
     1024
 91
        1
280
     0
281
     0
  0
CLASS
  1
AM_DWG_SHEET
  2
AcDmSheet
  3
AcMechDwgViewMgmt
 90
     1024
 91
        2
280
     0
281
     0
  0
CLASS
  1
AM_VIEWDIMPARMAP
  2
AcDmViewDimParMap
  3
AcMechDwgViewMgmt
 90
     1024
 91
        2
280
     0
281
     0
  0
CLASS
  1
AMDTINTERNALREACTOR
  2
AmdtInternalReactor
  3
AcMeServices
 90
     1024
 91
        1
280
     0
281
     0
  0
CLASS
  1
ACIMREALSYSVAR
  2
AcImRealSysVar
  3
AcMeServices
 90
     1024
 91
        1
280
     0
281
     0
  0
CLASS
  1
AM_DWGMGR_NAME
  2
AcDmDwgMgrName
  3
AcMechDwgViewMgmt
 90
     1024
 91
        1
280
     0
281
     0
  0
CLASS
  1
ACME_DATABASE
  2
AcMeDbDatabase
  3
AcMeServices
 90
     1024
 91
        1
280
     0
281
     0
  0
CLASS
  1
ACRFINSADJUSTERMGR
  2
AcRfInsAdjusterMgr
  3
AcMeServices
 90
     1024
 91
        1
280
     0
281
     0
  0
CLASS
  1
ACGREFACADMASTER
  2
AcGrefacadMaster
  3
AcGrefServices
 90
     1024
 91
        1
280
     0
281
     0
  0
CLASS
  1
AMDTMENUSTATEMGR
  2
AmdtMenuStateMgr
  3
McadcomServices
 90
     1024
 91
        1
280
     0
281
     0
  0
CLASS
  1
AMDTMCOMMENUSTATE
  2
AmdtMcomMenuState
  3
McadcomServices
 90
     1024
 91
        1
280
     0
281
     0
  0
CLASS
  1
AMIMASTER
  2
AmiMaster
  3
AmiServices
 90
     1024
 91
        1
280
     0
281
     0
  0
CLASS
  1
MAPIAMMOUDLE
  2
MApiAmModule
  3
MApiAmServices
 90
     1024
 91
        1
280
     0
281
     0
  0
CLASS
  1
ACIMSTRSYSVAR
  2
AcImStrSysVar
  3
AcMeServices
 90
     1024
 91
        5
280
     0
281
     0
  0
CLASS
  1
AMDTDMMENUSTATE
  2
AmdtDmMenuState
  3
AcMechDwgViewMgmt
 90
     1024
 91
        1
280
     0
281
     0
  0
CLASS
  1
AMDTAMMENUSTATE
  2
AmdtAmMenuState
  3
DesignerAssemblies
 90
     1024
 91
        1
280
     0
281
     0
  0
CLASS
  1
ACAMPROJECT
  2
AcAmProject
  3
DesignerAssemblies
 90
     1024
 91
        1
280
     0
281
     0
  0
CLASS
  1
ACAMGRCOMPDEF
  2
AcAmGrCompDef
  3
DesignerAssemblies
 90
     1024
 91
        1
280
     0
281
     0
  0
CLASS
  1
ACAMCOMPDEF
  2
AcAmCompDef
  3
DesignerAssemblies
 90
     1024
 91
        1
280
     0
281
     0
  0
CLASS
  1
ACAMCOMPDEFMGR
  2
AcAmCompDefMgr
  3
DesignerAssemblies
 90
     1024
 91
        1
280
     0
281
     0
  0
CLASS
  1
AMCONTEXTMGR
  2
AcAmContextMgr
  3
DesignerAssemblies
 90
     1024
 91
        1
280
     0
281
     0
  0
CLASS
  1
ACAMCONTEXTMODELER
  2
AcAmContextModeler
  3
DesignerAssemblies
 90
     1024
 91
        1
280
     0
281
     0
  0
CLASS
  1
ACMDATADICTIONARY
  2
AcmDataDictionary
  3
"AcmSymBB|Product Description: AutoCAD Mechanical|Company: Autodesk, Inc."
 90
     1024
 91
        1
280
     0
281
     0
  0
CLASS
  1
ACAMGRCOMPDEFSET
  2
AcAmGrCompDefSet
  3
DesignerAssemblies
 90
     1024
 91
        1
280
     0
281
     0
  0
CLASS
  1
AMDTBROWSERDBTAB
  2
AmdtBrowserDbTab
  3
McadcomServices
 90
     1024
 91
        1
280
     0
281
     0
  0
CLASS
  1
CBROWSERAPPOBJECT
  2
CBrowserAppObject
  3
McadcomServices
 90
     1024
 91
        2
280
     0
281
     0
  0
CLASS
  1
DM_PLACEHOLDER
  2
AcDmSelsetPlaceholder
  3
AcMechDwgViewMgmt
 90
     1024
 91
        1
280
     0
281
     0
  0
CLASS
  1
ACMSTANDARDISO
  2
AcmStandardISO
  3
"Amdt_StdImp|Product Description: AutoCAD Mechanical|Company: Autodesk, Inc."
 90
     1024
 91
        1
280
     0
281
     0
  0
CLASS
  1
AMDTEDGESTANDARDISO13715
  2
AmdtEdgeStdISO13715
  3
"Amdt_StdImp|Product Description: AutoCAD Mechanical|Company: Autodesk, Inc."
 90
     1024
 91
        1
280
     0
281
     0
  0
CLASS
  1
ACMSURFSTANDARDISO2002
  2
AcmSurfTextStdISO2002
  3
"Amdt_StdImp|Product Description: AutoCAD Mechanical|Company: Autodesk, Inc."
 90
     1024
 91
        1
280
     0
281
     0
  0
CLASS
  1
ACMFCFSTANDARDISO
  2
AcmFCFStdISO
  3
"Amdt_StdImp|Product Description: AutoCAD Mechanical|Company: Autodesk, Inc."
 90
     1024
 91
        1
280
     0
281
     0
  0
CLASS
  1
ACMWELDSTANDARDISO
  2
AcmWeldingStdISO
  3
"Amdt_StdImp|Product Description: AutoCAD Mechanical|Company: Autodesk, Inc."
 90
     1024
 91
        1
280
     0
281
     0
  0
CLASS
  1
ACMIDSTANDARDISO
  2
AcmIdStdISO
  3
"Amdt_StdImp|Product Description: AutoCAD Mechanical|Company: Autodesk, Inc."
 90
     1024
 91
        1
280
     0
281
     0
  0
CLASS
  1
ACMDATUMSTANDARDISO
  2
AcmDatumStdISO
  3
"Amdt_StdImp|Product Description: AutoCAD Mechanical|Company: Autodesk, Inc."
 90
     1024
 91
        1
280
     0
281
     0
  0
CLASS
  1
ACMBOMSTANDARDISO
  2
AcmBOMStdISO
  3
"Amdt_StdImp|Product Description: AutoCAD Mechanical|Company: Autodesk, Inc."
 90
     1024
 91
        1
280
     0
281
     0
  0
CLASS
  1
ACMDETAILSTANDARDISO
  2
AmdtDetailSymStdISO
  3
"Amdt_StdImp|Product Description: AutoCAD Mechanical|Company: Autodesk, Inc."
 90
     1024
 91
        1
280
     0
281
     0
  0
CLASS
  1
ACMSECTIONSTANDARDISO2001
  2
AmdtSectionSymStdISO2001
  3
"Amdt_StdImp|Product Description: AutoCAD Mechanical|Company: Autodesk, Inc."
 90
     1024
 91
        1
280
     0
281
     0
  0
CLASS
  1
ACMCENTERLINESTANDARDISO
  2
AmdtCenterLineStdISO
  3
"Amdt_StdImp|Product Description: AutoCAD Mechanical|Company: Autodesk, Inc."
 90
     1024
 91
        1
280
     0
281
     0
  0
CLASS
  1
ACMTHREADLINESTANDARDISO
  2
AmdtThreadLineStdISO
  3
"Amdt_StdImp|Product Description: AutoCAD Mechanical|Company: Autodesk, Inc."
 90
     1024
 91
        1
280
     0
281
     0
  0
CLASS
  1
ACMNOTESTANDARDISO
  2
AmdtNoteStdISO
  3
"Amdt_StdImp|Product Description: AutoCAD Mechanical|Company: Autodesk, Inc."
 90
     1024
 91
        1
280
     0
281
     0
  0
CLASS
  1
ACMTAPERSTANDARDISO
  2
AcmTaperStdISO
  3
"Amdt_StdImp|Product Description: AutoCAD Mechanical|Company: Autodesk, Inc."
 90
     1024
 91
        1
280
     0
281
     0
  0
CLASS
  1
ACMANOOTATIONVIEWSTANDARDISO
  2
AmdtAnViewStdISO
  3
"Amdt_StdImp|Product Description: AutoCAD Mechanical|Company: Autodesk, Inc."
 90
     1024
 91
        1
280
     0
281
     0
  0
CLASS
  1
ACAMGLAYSTD
  2
AcAmgLayStd
  3
"AmgLay|Product Description: AutoCAD Mechanical|Company: Autodesk, Inc."
 90
     1024
 91
        1
280
     0
281
     0
  0
CLASS
  1
ACAMGDIMSTD
  2
AcAmgDimStd
  3
"AmgDim|Product Description: AutoCAD Mechanical|Company: Autodesk, Inc."
 90
     1024
 91
        1
280
     0
281
     0
  0
CLASS
  1
AMGOBJPROPCFG
  2
AmgObjPropCfg
  3
"AmgLay|Product Description: AutoCAD Mechanical|Company: Autodesk, Inc."
 90
     1025
 91
        1
280
     0
281
     0
  0
CLASS
  1
ACAMGHOLECHARTSTDISO
  2
AcAmgHoleChartStdISO
  3
AmgDim|Product Description: AutoCAD Mechanical|Company: Autodesk, Inc.
 90
     1024
 91
        1
280
     0
281
     0
  0
CLASS
  1
ACAMGTITLESTD
  2
AcAmgTitleStd
  3
"AmgTitle|Product Description: AutoCAD Mechanical|Company: Autodesk, Inc."
 90
     4095
 91
        1
280
     0
281
     0
  0
CLASS
  1
AMDTNOTETEMPLATEDB
  2
AmdtNoteTemplateDB
  3
AcmSymBB|Product Description: AutoCAD Mechanical|Company: Autodesk, Inc.
 90
     1024
 91
        6
280
     0
281
     0
  0
CLASS
  1
ACAMGFILTERDAT
  2
AcAmgFilterDat
  3
"AcadM|Product Description: AutoCAD Mechanical|Company: Autodesk, Inc."
 90
     1024
 91
        6
280
     0
281
     0
  0
ENDSEC
  0
SECTION
  2
TABLES
  0
TABLE
  2
VPORT
  5
8
330
0
100
AcDbSymbolTable
 70
     1
  0
VPORT
  5
57
330
8
100
AcDbSymbolTableRecord
100
AcDbViewportTableRecord
  2
*Active
 70
     0
 10
0.0
 20
0.0
 11
1.0
 21
1.0
 12
2221.966926905123
 22
3200.327500004985
 13
0.0
 23
0.0
 14
1.0
 24
1.0
 15
0.0
 25
0.0
 16
0.0
 26
0.0
 36
1.0
 17
0.0
 27
0.0
 37
0.0
 40
3813.899486610362
 41
1.510204081632652
 42
50.0
 43
0.0
 44
0.0
 50
0.0
 51
0.0
 71
     0
 72
   100
 73
     1
 74
     1
 75
     0
 76
     0
 77
     0
 78
     0
281
     0
 65
     0
110
0.0
120
0.0
130
0.0
111
1.0
121
0.0
131
0.0
112
0.0
122
1.0
132
0.0
 79
     0
146
0.0
  0
ENDTAB
  0
TABLE
  2
LTYPE
  5
5
330
0
100
AcDbSymbolTable
 70
    14
  0
LTYPE
  5
5B
330
5
100
AcDbSymbolTableRecord
100
AcDbLinetypeTableRecord
  2
ByBlock
 70
     0
  3

 72
    65
 73
     0
 40
0.0
  0
LTYPE
  5
5C
330
5
100
AcDbSymbolTableRecord
100
AcDbLinetypeTableRecord
  2
ByLayer
 70
     0
  3

 72
    65
 73
     0
 40
0.0
  0
LTYPE
  5
5D
330
5
100
AcDbSymbolTableRecord
100
AcDbLinetypeTableRecord
  2
Continuous
 70
     0
  3
Solid line
 72
    65
 73
     0
 40
0.0
  0
LTYPE
  5
58E
330
5
100
AcDbSymbolTableRecord
100
AcDbLinetypeTableRecord
  2
HIDDEN
 70
     0
  3
Ukryta __ __ __ __ __ __ __ __ __ __ __ __ __ __
 72
    65
 73
     2
 40
9.525
 49
6.349999999999999
 74
     0
 49
-3.174999999999999
 74
     0
  0
LTYPE
  5
58F
330
5
100
AcDbSymbolTableRecord
100
AcDbLinetypeTableRecord
  2
PHANTOM2
 70
     0
  3
Linia pozorna (.5x) ___ _ _ ___ _ _ ___ _ _ ___ _ _
 72
    65
 73
     6
 40
31.75
 49
15.875
 74
     0
 49
-3.174999999999999
 74
     0
 49
3.174999999999999
 74
     0
 49
-3.174999999999999
 74
     0
 49
3.174999999999999
 74
     0
 49
-3.174999999999999
 74
     0
  0
LTYPE
  5
590
330
5
100
AcDbSymbolTableRecord
100
AcDbLinetypeTableRecord
  2
CENTER
 70
     0
  3
Centrum ____ _ ____ _ ____ _ ____ _ ____ _ ____
 72
    65
 73
     4
 40
50.8
 49
31.75
 74
     0
 49
-6.349999999999999
 74
     0
 49
6.349999999999999
 74
     0
 49
-6.349999999999999
 74
     0
  0
LTYPE
  5
5CE
330
5
100
AcDbSymbolTableRecord
100
AcDbLinetypeTableRecord
  2
AM_ISO02W050
 70
     0
  3
__ __ __ __ __ __ __ __ __ __ __ __ __ __ __
 72
    65
 73
     2
 40
7.5
 49
6.0
 74
     0
 49
-1.5
 74
     0
  0
LTYPE
  5
5CF
330
5
100
AcDbSymbolTableRecord
100
AcDbLinetypeTableRecord
  2
AM_ISO08W050
 70
     0
  3
____ . ____ . ____ . ____ . ____ . ____ . ____
 72
    65
 73
     4
 40
18.0
 49
12.0
 74
     0
 49
-1.5
 74
     0
 49
3.0
 74
     0
 49
-1.5
 74
     0
  0
LTYPE
  5
5D0
330
5
100
AcDbSymbolTableRecord
100
AcDbLinetypeTableRecord
  2
AM_ISO09W050
 70
     0
  3
_____ . . _____ . . _____ . . ____ .. ____
 72
    65
 73
     6
 40
22.5
 49
12.0
 74
     0
 49
-1.5
 74
     0
 49
3.0
 74
     0
 49
-1.5
 74
     0
 49
3.0
 74
     0
 49
-1.5
 74
     0
  0
LTYPE
  5
5D1
330
5
100
AcDbSymbolTableRecord
100
AcDbLinetypeTableRecord
  2
Amconstr
 70
     0
  3
_______________________
 72
    65
 73
     2
 40
9999.0
 49
9999.0
 74
     0
 49
0.0
 74
     0
  0
LTYPE
  5
5D2
330
5
100
AcDbSymbolTableRecord
100
AcDbLinetypeTableRecord
  2
AM_ISO08W050x2
 70
     0
  3
__ . __ . __ . __ . __ . __
 72
    65
 73
     4
 40
9.0
 49
6.0
 74
     0
 49
-0.75
 74
     0
 49
1.5
 74
     0
 49
-0.75
 74
     0
  0
LTYPE
  5
5D3
330
5
100
AcDbSymbolTableRecord
100
AcDbLinetypeTableRecord
  2
AM_ISO02W050x2
 70
     0
  3
 _ _ _ _ _ _ _ _ _ _ _ _
 72
    65
 73
     2
 40
3.75
 49
3.0
 74
     0
 49
-0.75
 74
     0
  0
LTYPE
  5
5D6
330
5
100
AcDbSymbolTableRecord
100
AcDbLinetypeTableRecord
  2
Amzigzag
 70
     0
  3
/\/-/\/-/\/-/\/-/\/-/\/
 72
    65
 73
     2
 40
11.0001
 49
0.0001
 74
     4
 75
   136
340
5D5
 46
0.04
 50
0.0
 44
0.0
 45
0.0
 49
-11.0
 74
     0
  0
LTYPE
  5
5E5
330
5
100
AcDbSymbolTableRecord
100
AcDbLinetypeTableRecord
  2
ACISOWELD
 70
     0
  3
_ _ _ _ _
 72
    65
 73
     2
 40
2.0
 49
2.0
 74
     0
 49
-1.0
 74
     0
  0
LTYPE
  5
5E6
330
5
100
AcDbSymbolTableRecord
100
AcDbLinetypeTableRecord
  2
ACISOTGB
 70
     0
  3
__ . . __ . .
 72
    65
 73
     6
 40
9.0
 49
4.0
 74
     0
 49
-1.0
 74
     0
 49
1.0
 74
     0
 49
-1.0
 74
     0
 49
1.0
 74
     0
 49
-1.0
 74
     0
  0
LTYPE
  5
5E7
330
5
100
AcDbSymbolTableRecord
100
AcDbLinetypeTableRecord
  2
ACISOTGL
 70
     0
  3
_ _ _ _ _
 72
    65
 73
     2
 40
3.0
 49
2.0
 74
     0
 49
-1.0
 74
     0
  0
ENDTAB
  0
TABLE
  2
LAYER
  5
2
102
{ACAD_XDICTIONARY
360
5F8
102
}
330
0
100
AcDbSymbolTable
 70
     7
  0
LAYER
  5
54
330
2
100
AcDbSymbolTableRecord
100
AcDbLayerTableRecord
  2
0
 70
     0
 62
     7
  6
Continuous
370
    -3
390
F
  0
LAYER
  5
75
330
2
100
AcDbSymbolTableRecord
100
AcDbLayerTableRecord
  2
Geometria szkicu (ISO)
 70
     0
 62
     7
  6
Continuous
370
    25
390
F
  0
LAYER
  5
76
330
2
100
AcDbSymbolTableRecord
100
AcDbLayerTableRecord
  2
Kreskowanie (ISO)
 70
     0
 62
     7
  6
Continuous
370
    18
390
F
  0
LAYER
  5
7E
330
2
100
AcDbSymbolTableRecord
100
AcDbLayerTableRecord
  2
Obramowanie (ISO)
 70
     0
 62
     7
  6
Continuous
370
    70
390
F
  0
LAYER
  5
85
330
2
100
AcDbSymbolTableRecord
100
AcDbLayerTableRecord
  2
Symbol (ISO)
 70
     0
 62
     7
  6
Continuous
370
    25
390
F
  0
LAYER
  5
8B
330
2
100
AcDbSymbolTableRecord
100
AcDbLayerTableRecord
  2
Widoczne (ISO)
 70
     0
 62
     7
  6
Continuous
370
    18
390
F
  0
LAYER
  5
8D
330
2
100
AcDbSymbolTableRecord
100
AcDbLayerTableRecord
  2
Wymiar (ISO)
 70
     0
 62
     7
  6
Continuous
370
    25
390
F
  0
ENDTAB
  0
TABLE
  2
STYLE
  5
3
330
0
100
AcDbSymbolTable
 70
     9
  0
STYLE
  5
55
330
3
100
AcDbSymbolTableRecord
100
AcDbTextStyleTableRecord
  2
Standard
 70
     0
 40
0.0
 41
1.0
 50
0.0
 71
     0
 42
0.2
  3
tahoma.ttf
  4

1001
ACAD
1000
Tahoma
1071
      256
  0
STYLE
  5
5A
330
3
100
AcDbSymbolTableRecord
100
AcDbTextStyleTableRecord
  2
Annotative
 70
     0
 40
0.0
 41
1.0
 50
0.0
 71
     0
 42
0.2
  3
txt
  4

1001
AcadAnnotative
1000
AnnotativeData
1002
{
1070
     1
1070
     1
1002
}
  0
STYLE
  5
90
330
3
100
AcDbSymbolTableRecord
100
AcDbTextStyleTableRecord
  2
Tekst etykiety (ISO)
 70
     0
 40
0.0
 41
1.0
 50
0.0
 71
     0
 42
0.2
  3
tahoma.ttf
  4

1001
ACAD
1000
Tahoma
1071
      256
  0
STYLE
  5
91
330
3
100
AcDbSymbolTableRecord
100
AcDbTextStyleTableRecord
  2
Tekst notatki (ISO)
 70
     0
 40
0.0
 41
1.0
 50
0.0
 71
     0
 42
0.2
  3
tahoma.ttf
  4

1001
ACAD
1000
Tahoma
1071
      256
  0
STYLE
  5
92
330
3
100
AcDbSymbolTableRecord
100
AcDbTextStyleTableRecord
  2
wibo Tekst etykiety (ISO)
 70
     0
 40
0.0
 41
1.0
 50
0.0
 71
     0
 42
0.2
  3
tahoma.ttf
  4

1001
ACAD
1000
Tahoma
1071
      256
  0
STYLE
  5
93
330
3
100
AcDbSymbolTableRecord
100
AcDbTextStyleTableRecord
  2
wibo Tekst notatki (ISO)
 70
     0
 40
0.0
 41
1.0
 50
0.0
 71
     0
 42
0.2
  3
tahoma.ttf
  4

1001
ACAD
1000
Tahoma
1071
      256
  0
STYLE
  5
5D5
330
3
100
AcDbSymbolTableRecord
100
AcDbTextStyleTableRecord
  2

 70
     1
 40
0.0
 41
1.0
 50
0.0
 71
     0
 42
0.2
  3
genltshp.shx
  4

  0
STYLE
  5
5E3
330
3
100
AcDbSymbolTableRecord
100
AcDbTextStyleTableRecord
  2
ACISOTS
 70
     0
 40
1.0
 41
1.0
 50
0.0
 71
     0
 42
0.2
  3
isocp.shx
  4

  0
STYLE
  5
5E4
330
3
100
AcDbSymbolTableRecord
100
AcDbTextStyleTableRecord
  2
ACISOGDT
 70
     0
 40
0.0
 41
1.0
 50
0.0
 71
     0
 42
0.2
  3
amgdt.shx
  4

  0
ENDTAB
  0
TABLE
  2
VIEW
  5
6
330
0
100
AcDbSymbolTable
 70
     1
  0
ENDTAB
  0
TABLE
  2
UCS
  5
7
330
0
100
AcDbSymbolTable
 70
     0
  0
ENDTAB
  0
TABLE
  2
APPID
  5
9
330
0
100
AcDbSymbolTable
 70
    16
  0
APPID
  5
56
330
9
100
AcDbSymbolTableRecord
100
AcDbRegAppTableRecord
  2
ACAD
 70
     0
  0
APPID
  5
5E
330
9
100
AcDbSymbolTableRecord
100
AcDbRegAppTableRecord
  2
AcadAnnotative
 70
     0
  0
APPID
  5
549
330
9
100
AcDbSymbolTableRecord
100
AcDbRegAppTableRecord
  2
ACAD_MLEADERVER
 70
     0
  0
APPID
  5
563
330
9
100
AcDbSymbolTableRecord
100
AcDbRegAppTableRecord
  2
MCAD_NO_VIS
 70
     0
  0
APPID
  5
564
330
9
100
AcDbSymbolTableRecord
100
AcDbRegAppTableRecord
  2
ACAD_TEMP_GRAPHIC
 70
     0
  0
APPID
  5
592
330
9
100
AcDbSymbolTableRecord
100
AcDbRegAppTableRecord
  2
AD_DRAW
 70
     0
  0
APPID
  5
595
330
9
100
AcDbSymbolTableRecord
100
AcDbRegAppTableRecord
  2
ACATTRIBSERVICES
 70
     0
  0
APPID
  5
5AE
330
9
100
AcDbSymbolTableRecord
100
AcDbRegAppTableRecord
  2
DESIGNERASSEMBLIES
 70
     0
  0
APPID
  5
5B3
330
9
100
AcDbSymbolTableRecord
100
AcDbRegAppTableRecord
  2
ACADM_DIM_EDIT
 70
     0
  0
APPID
  5
5B4
330
9
100
AcDbSymbolTableRecord
100
AcDbRegAppTableRecord
  2
AMDT_DM_ADJ
 70
     0
  0
APPID
  5
5CB
330
9
100
AcDbSymbolTableRecord
100
AcDbRegAppTableRecord
  2
ACAD_DSTYLE_DIMJAG
 70
     0
  0
APPID
  5
5CC
330
9
100
AcDbSymbolTableRecord
100
AcDbRegAppTableRecord
  2
ACAD_DSTYLE_DIMBREAK
 70
     0
  0
APPID
  5
63C
330
9
100
AcDbSymbolTableRecord
100
AcDbRegAppTableRecord
  2
ACAD_DSTYLE_DIMARC_LENGTH_SYMBOL
 70
     0
  0
APPID
  5
63D
330
9
100
AcDbSymbolTableRecord
100
AcDbRegAppTableRecord
  2
ACAD_DSTYLE_DIM_LINETYPE
 70
     0
  0
APPID
  5
63E
330
9
100
AcDbSymbolTableRecord
100
AcDbRegAppTableRecord
  2
ACAD_DSTYLE_DIM_EXT1_LINETYPE
 70
     0
  0
APPID
  5
63F
330
9
100
AcDbSymbolTableRecord
100
AcDbRegAppTableRecord
  2
ACAD_DSTYLE_DIM_EXT2_LINETYPE
 70
     0
  0
ENDTAB
  0
TABLE
  2
DIMSTYLE
  5
A
330
0
100
AcDbSymbolTable
 70
    35
100
AcDbDimStyleTable
 71
     0
  0
DIMSTYLE
105
58
330
A
100
AcDbSymbolTableRecord
100
AcDbDimStyleTableRecord
  2
Standard
 70
     0
340
55
  0
DIMSTYLE
105
59
330
A
100
AcDbSymbolTableRecord
100
AcDbDimStyleTableRecord
  2
Annotative
 70
     0
340
55
1001
AcadAnnotative
1000
AnnotativeData
1002
{
1070
     1
1070
     1
1002
}
  0
DIMSTYLE
105
94
330
A
100
AcDbSymbolTableRecord
100
AcDbDimStyleTableRecord
  2
Domyślne - Metoda 1b (ISO)
 70
     0
 40
18.0
 41
2.5
 42
0.0
 43
5.999999999999999
 44
3.174999999999998
 45
0.00000001
 46
10.0
 73
     0
 77
     1
 78
     8
 79
     2
140
3.5
143
0.03937
147
0.762
171
     3
172
     1
176
   256
177
   256
178
   256
179
     2
271
     2
272
     2
274
     3
278
    44
284
     8
286
     8
340
91
371
    -1
372
    -1
  0
DIMSTYLE
105
95
330
A
100
AcDbSymbolTableRecord
100
AcDbDimStyleTableRecord
  2
Domyślne - Metoda 1b (ISO)$7
 70
     0
 40
18.0
 41
2.5
 42
0.0
 43
5.999999999999999
 44
3.174999999999998
 45
0.00000001
 46
10.0
 73
     0
 77
     1
 78
     8
 79
     2
140
3.5
143
0.03937
147
0.762
171
     3
172
     1
176
   256
177
   256
178
   256
179
     2
271
     2
272
     2
274
     3
278
    44
284
     8
286
     8
340
91
371
    -1
372
    -1
  0
DIMSTYLE
105
96
330
A
100
AcDbSymbolTableRecord
100
AcDbDimStyleTableRecord
  2
Domyślne - Metoda 2a (ISO)
 70
     0
 40
18.0
 41
2.5
 42
0.0
 43
5.999999999999999
 44
3.174999999999998
 45
0.00000001
 46
10.0
 77
     1
 78
     8
 79
     2
140
3.5
143
0.03937
147
0.762
171
     3
172
     1
176
   256
177
   256
178
   256
179
     2
271
     2
272
     2
274
     3
278
    44
284
     8
286
     8
340
91
371
    -1
372
    -1
  0
DIMSTYLE
105
97
330
A
100
AcDbSymbolTableRecord
100
AcDbDimStyleTableRecord
  2
Domyślne - Metoda 2a (ISO)$7
 70
     0
 40
18.0
 41
2.5
 42
0.0
 43
5.999999999999999
 44
3.174999999999998
 45
0.00000001
 46
10.0
 77
     1
 78
     8
 79
     2
140
3.5
143
0.03937
147
0.762
171
     3
172
     1
176
   256
177
   256
178
   256
179
     2
271
     2
272
     2
274
     3
278
    44
284
     8
286
     8
340
91
371
    -1
372
    -1
  0
DIMSTYLE
105
98
330
A
100
AcDbSymbolTableRecord
100
AcDbDimStyleTableRecord
  2
Domyślne - Metoda 2b (ISO)
 70
     0
 40
18.0
 41
2.5
 42
0.0
 43
5.999999999999999
 44
3.174999999999998
 45
0.00000001
 46
10.0
 77
     1
 78
     8
 79
     2
140
3.5
143
0.03937
147
0.762
171
     3
172
     1
176
   256
177
   256
178
   256
179
     2
271
     2
272
     2
274
     3
278
    44
284
     8
286
     8
340
91
371
    -1
372
    -1
  0
DIMSTYLE
105
99
330
A
100
AcDbSymbolTableRecord
100
AcDbDimStyleTableRecord
  2
Domyślne - Metoda 2b (ISO)$7
 70
     0
 40
18.0
 41
2.5
 42
0.0
 43
5.999999999999999
 44
3.174999999999998
 45
0.00000001
 46
10.0
 77
     1
 78
     8
 79
     2
140
3.5
143
0.03937
147
0.762
171
     3
172
     1
176
   256
177
   256
178
   256
179
     2
271
     2
272
     2
274
     3
278
    44
284
     8
286
     8
340
91
371
    -1
372
    -1
  0
DIMSTYLE
105
9A
330
A
100
AcDbSymbolTableRecord
100
AcDbDimStyleTableRecord
  2
Domyślne - mm [cale] (ISO)
 70
     0
  4
 cal
 40
18.0
 41
2.5
 42
0.0
 43
5.999999999999999
 44
3.174999999999998
 45
0.00000001
 46
10.0
 73
     0
 74
     0
 77
     1
 78
     8
 79
     2
140
3.5
143
0.03937
147
0.762
170
     1
171
     3
172
     1
176
   256
177
   256
178
   256
179
     3
271
     3
272
     2
274
     3
275
     1
278
    44
284
     8
285
     8
286
     8
340
91
371
    -1
372
    -1
  0
DIMSTYLE
105
9B
330
A
100
AcDbSymbolTableRecord
100
AcDbDimStyleTableRecord
  2
Domyślne - mm [cale] (ISO)$7
 70
     0
  4
 cal
 40
18.0
 41
2.5
 42
0.0
 43
5.999999999999999
 44
3.174999999999998
 45
0.00000001
 46
10.0
 73
     0
 74
     0
 77
     1
 78
     8
 79
     2
140
3.5
143
0.03937
147
0.762
170
     1
171
     3
172
     1
176
   256
177
   256
178
   256
179
     3
271
     3
272
     2
274
     3
275
     1
278
    44
284
     8
285
     8
286
     8
340
91
371
    -1
372
    -1
  0
DIMSTYLE
105
9C
330
A
100
AcDbSymbolTableRecord
100
AcDbDimStyleTableRecord
  2
Domyślne (ISO)
 70
     0
 40
18.0
 41
2.5
 42
0.0
 43
5.999999999999999
 44
3.174999999999998
 45
0.00000001
 46
10.0
 73
     0
 74
     0
 77
     1
140
3.5
143
0.03937
146
1.00148570537567
147
0.762
171
     3
172
     1
176
   256
177
   256
178
   256
179
     2
271
     2
272
     2
274
     3
278
    44
340
91
371
    -1
372
    -1
  0
DIMSTYLE
105
9D
330
A
100
AcDbSymbolTableRecord
100
AcDbDimStyleTableRecord
  2
Domyślne (ISO)$7
 70
     0
 40
18.0
 41
2.5
 42
0.0
 43
5.999999999999999
 44
3.174999999999998
 45
0.00000001
 46
10.0
 73
     0
 74
     0
 77
     1
140
3.5
143
0.03937
146
1.00148570537567
147
0.762
171
     3
172
     1
176
   256
177
   256
178
   256
179
     2
271
     2
272
     2
274
     3
278
    44
340
91
371
    -1
372
    -1
  0
DIMSTYLE
105
AC
330
A
100
AcDbSymbolTableRecord
100
AcDbDimStyleTableRecord
  2
Obiekt mieszany (ISO)
 70
     0
 40
18.0
 41
2.5
 42
0.0
 43
5.999999999999999
 44
3.174999999999998
 45
0.00000001
 46
10.0
 73
     0
 74
     0
 77
     1
140
5.25
143
0.03937
146
0.6676571965217592
147
0.762
171
     3
172
     1
176
   256
177
   256
178
   256
179
     2
271
     2
272
     2
274
     3
278
    44
340
90
341
9E
371
    -1
372
    -1
  0
DIMSTYLE
105
AD
330
A
100
AcDbSymbolTableRecord
100
AcDbDimStyleTableRecord
  2
Obiekt mieszany (ISO)$7
 70
     0
 40
18.0
 41
5.0
 42
0.0
 43
5.999999999999999
 44
3.174999999999998
 45
0.00000001
 46
10.0
 73
     0
 74
     0
 77
     1
140
5.25
143
0.03937
146
0.6676571965217592
147
0.762
171
     3
172
     1
176
   256
177
   256
178
   256
179
     2
271
     2
272
     2
274
     3
278
    44
340
90
341
9E
371
    25
372
    -1
  0
DIMSTYLE
105
AE
330
A
100
AcDbSymbolTableRecord
100
AcDbDimStyleTableRecord
  2
wibo Domyślne - Metoda 1b (ISO)
 70
     0
 40
18.0
 41
2.5
 42
0.0
 43
5.999999999999999
 44
3.174999999999998
 45
0.00000001
 46
10.0
 73
     0
 77
     1
 78
     8
 79
     2
140
2.0
143
0.03937
147
0.762
171
     3
172
     1
176
   256
177
   256
178
   256
179
     2
271
     2
272
     2
274
     3
278
    44
284
     8
286
     8
340
93
371
    -1
372
    -1
  0
DIMSTYLE
105
AF
330
A
100
AcDbSymbolTableRecord
100
AcDbDimStyleTableRecord
  2
wibo Domyślne - Metoda 1b (ISO)$7
 70
     0
 40
18.0
 41
2.5
 42
0.0
 43
5.999999999999999
 44
3.174999999999998
 45
0.00000001
 46
10.0
 73
     0
 77
     1
 78
     8
 79
     2
140
2.0
143
0.03937
147
0.762
171
     3
172
     1
176
   256
177
   256
178
   256
179
     2
271
     2
272
     2
274
     3
278
    44
284
     8
286
     8
340
93
371
    -1
372
    -1
  0
DIMSTYLE
105
B0
330
A
100
AcDbSymbolTableRecord
100
AcDbDimStyleTableRecord
  2
wibo Domyślne - Metoda 2a (ISO)
 70
     0
 40
18.0
 41
2.5
 42
0.0
 43
5.999999999999999
 44
3.174999999999998
 45
0.00000001
 46
10.0
 77
     1
 78
     8
 79
     2
140
2.0
143
0.03937
146
1.75
147
0.762
171
     3
172
     1
176
   256
177
   256
178
   256
179
     2
271
     2
272
     2
274
     3
278
    44
284
     8
286
     8
340
93
371
    -1
372
    -1
  0
DIMSTYLE
105
B1
330
A
100
AcDbSymbolTableRecord
100
AcDbDimStyleTableRecord
  2
wibo Domyślne - Metoda 2a (ISO)$7
 70
     0
 40
18.0
 41
2.5
 42
0.0
 43
5.999999999999999
 44
3.174999999999998
 45
0.00000001
 46
10.0
 77
     1
 78
     8
 79
     2
140
2.0
143
0.03937
146
1.75
147
0.762
171
     3
172
     1
176
   256
177
   256
178
   256
179
     2
271
     2
272
     2
274
     3
278
    44
284
     8
286
     8
340
93
371
    -1
372
    -1
  0
DIMSTYLE
105
B2
330
A
100
AcDbSymbolTableRecord
100
AcDbDimStyleTableRecord
  2
wibo Domyślne - Metoda 2b (ISO)
 70
     0
 40
18.0
 41
2.5
 42
0.0
 43
5.999999999999999
 44
3.174999999999998
 45
0.00000001
 46
10.0
 77
     1
 78
     8
 79
     2
140
2.0
143
0.03937
146
1.75
147
0.762
171
     3
172
     1
176
   256
177
   256
178
   256
179
     2
271
     2
272
     2
274
     3
278
    44
284
     8
286
     8
340
93
371
    -1
372
    -1
  0
DIMSTYLE
105
B3
330
A
100
AcDbSymbolTableRecord
100
AcDbDimStyleTableRecord
  2
wibo Domyślne - Metoda 2b (ISO)$7
 70
     0
 40
18.0
 41
2.5
 42
0.0
 43
5.999999999999999
 44
3.174999999999998
 45
0.00000001
 46
10.0
 77
     1
 78
     8
 79
     2
140
2.0
143
0.03937
146
1.75
147
0.762
171
     3
172
     1
176
   256
177
   256
178
   256
179
     2
271
     2
272
     2
274
     3
278
    44
284
     8
286
     8
340
93
371
    -1
372
    -1
  0
DIMSTYLE
105
B4
330
A
100
AcDbSymbolTableRecord
100
AcDbDimStyleTableRecord
  2
wibo Domyślne - mm [cale] (ISO)
 70
     0
  4
 cal
 40
18.0
 41
2.5
 42
0.0
 43
5.999999999999999
 44
3.174999999999998
 45
0.00000001
 46
10.0
 73
     0
 74
     0
 77
     1
 78
     8
 79
     2
140
2.0
143
0.03937
146
1.75
147
0.762
170
     1
171
     3
172
     1
176
   256
177
   256
178
   256
179
     3
271
     3
272
     2
274
     3
275
     1
278
    44
284
     8
285
     8
286
     8
340
93
371
    -1
372
    -1
  0
DIMSTYLE
105
B5
330
A
100
AcDbSymbolTableRecord
100
AcDbDimStyleTableRecord
  2
wibo Domyślne - mm [cale] (ISO)$7
 70
     0
  4
 cal
 40
18.0
 41
2.5
 42
0.0
 43
5.999999999999999
 44
3.174999999999998
 45
0.00000001
 46
10.0
 73
     0
 74
     0
 77
     1
 78
     8
 79
     2
140
2.0
143
0.03937
146
1.75
147
0.762
170
     1
171
     3
172
     1
176
   256
177
   256
178
   256
179
     3
271
     3
272
     2
274
     3
275
     1
278
    44
284
     8
285
     8
286
     8
340
93
371
    -1
372
    -1
  0
DIMSTYLE
105
B6
330
A
100
AcDbSymbolTableRecord
100
AcDbDimStyleTableRecord
  2
wibo Domyślne ISO
 70
     0
 40
18.0
 41
2.5
 42
0.0
 43
5.999999999999999
 44
3.174999999999998
 45
0.00000001
 46
10.0
 73
     0
 74
     0
 77
     1
140
2.0
143
0.03937
147
0.762
171
     3
172
     1
176
   256
177
   256
178
   256
179
     1
271
     1
272
     2
274
     3
278
    44
340
93
371
    -1
372
    -1
  0
DIMSTYLE
105
B7
330
A
100
AcDbSymbolTableRecord
100
AcDbDimStyleTableRecord
  2
wibo Domyślne ISO$7
 70
     0
 40
18.0
 41
2.5
 42
0.0
 43
5.999999999999999
 44
3.174999999999998
 45
0.00000001
 46
10.0
 73
     0
 74
     0
 77
     1
140
2.0
143
0.03937
147
0.762
171
     3
172
     1
176
   256
177
   256
178
   256
179
     1
271
     1
272
     2
274
     3
278
    44
340
93
371
    -1
372
    -1
  0
DIMSTYLE
105
B8
330
A
100
AcDbSymbolTableRecord
100
AcDbDimStyleTableRecord
  2
wibo Obiekt mieszany (ISO)
 70
     0
 40
18.0
 41
2.5
 42
0.0
 43
5.999999999999999
 44
3.174999999999998
 45
0.00000001
 46
10.0
 73
     0
 74
     0
 77
     1
140
3.5
143
0.03937
146
1.00148570537567
147
0.762
171
     3
172
     1
176
   256
177
   256
178
   256
179
     2
271
     2
272
     2
274
     3
278
    44
340
92
341
9E
371
    -1
372
    -1
  0
DIMSTYLE
105
B9
330
A
100
AcDbSymbolTableRecord
100
AcDbDimStyleTableRecord
  2
wibo Obiekt mieszany (ISO)$7
 70
     0
 40
18.0
 41
5.0
 42
0.0
 43
5.999999999999999
 44
3.174999999999998
 45
0.00000001
 46
10.0
 73
     0
 74
     0
 77
     1
140
3.5
143
0.03937
146
1.00148570537567
147
0.762
171
     3
172
     1
176
   256
177
   256
178
   256
179
     2
271
     2
272
     2
274
     3
278
    44
340
92
341
9E
371
    25
372
    -1
  0
DIMSTYLE
105
BA
330
A
100
AcDbSymbolTableRecord
100
AcDbDimStyleTableRecord
  2
Dodatkowy (ISO)
 70
     0
 40
18.0
 41
2.5
340
55
342
BB
  0
DIMSTYLE
105
CC
330
A
100
AcDbSymbolTableRecord
100
AcDbDimStyleTableRecord
  2
Odniesienie (ISO)
 70
     0
 40
18.0
 41
2.5
340
55
342
BB
  0
DIMSTYLE
105
5CA
102
{ACAD_REACTORS
330
5B9
102
}
330
A
100
AcDbSymbolTableRecord
100
AcDbDimStyleTableRecord
  2
AM_ISO
 70
     0
  4
"
 41
3.5
 42
1.0
 43
10.0
 44
1.0
 47
0.1
 48
0.1
 73
     0
 74
     0
 77
     1
 78
     8
 79
     2
140
3.5
141
0.0
143
0.0393701
146
0.71
147
1.5
172
     1
176
   256
177
   256
178
     2
271
     2
272
     3
274
     4
283
     0
284
     8
340
55
371
    -1
372
    -1
1001
ACAD_DSTYLE_DIMJAG
1070
   388
1040
1.5
1001
ACAD_DSTYLE_DIMBREAK
1070
   391
1040
3.75
1001
ACAD_DSTYLE_DIMARC_LENGTH_SYMBOL
1070
   379
1070
     1
1001
ACAD_DSTYLE_DIM_LINETYPE
1070
   380
1005
5B
1001
ACAD_DSTYLE_DIM_EXT1_LINETYPE
1070
   381
1005
5B
1001
ACAD_DSTYLE_DIM_EXT2_LINETYPE
1070
   382
1005
5B
  0
DIMSTYLE
105
5D7
330
A
100
AcDbSymbolTableRecord
100
AcDbDimStyleTableRecord
  2
AM_ISO$3
 70
     0
  4
"
 41
3.5
 42
1.0
 43
10.0
 44
1.0
 47
0.1
 48
0.1
 73
     0
 77
     1
 78
     8
 79
     2
140
3.5
141
0.0
143
0.0393701
146
0.71
147
1.5
176
   256
177
   256
178
     2
271
     2
272
     3
274
     4
283
     0
284
     8
288
     1
289
     0
340
55
371
    -1
372
    -1
1001
ACAD_DSTYLE_DIMBREAK
1070
   391
1040
3.75
1001
ACAD_DSTYLE_DIMJAG
1070
   388
1040
1.5
1001
ACAD_DSTYLE_DIMARC_LENGTH_SYMBOL
1070
   379
1070
     1
1001
ACAD_DSTYLE_DIM_LINETYPE
1070
   380
1005
5B
1001
ACAD_DSTYLE_DIM_EXT1_LINETYPE
1070
   381
1005
5B
1001
ACAD_DSTYLE_DIM_EXT2_LINETYPE
1070
   382
1005
5B
  0
DIMSTYLE
105
5D8
330
A
100
AcDbSymbolTableRecord
100
AcDbDimStyleTableRecord
  2
AM_ISO$4
 70
     0
  4
"
 41
3.5
 42
1.0
 43
10.0
 44
1.0
 47
0.1
 48
0.1
 73
     0
 77
     1
 78
     8
 79
     2
140
3.5
141
0.0
143
0.0393701
146
0.71
147
1.5
176
   256
177
   256
178
     2
271
     2
272
     3
274
     4
283
     0
284
     8
288
     1
289
     0
340
55
371
    -1
372
    -1
1001
ACAD_DSTYLE_DIMBREAK
1070
   391
1040
3.75
1001
ACAD_DSTYLE_DIMJAG
1070
   388
1040
1.5
1001
ACAD_DSTYLE_DIMARC_LENGTH_SYMBOL
1070
   379
1070
     1
1001
ACAD_DSTYLE_DIM_LINETYPE
1070
   380
1005
5B
1001
ACAD_DSTYLE_DIM_EXT1_LINETYPE
1070
   381
1005
5B
1001
ACAD_DSTYLE_DIM_EXT2_LINETYPE
1070
   382
1005
5B
  0
DIMSTYLE
105
5D9
330
A
100
AcDbSymbolTableRecord
100
AcDbDimStyleTableRecord
  2
AM_ISO$6
 70
     0
  4
"
 41
3.5
 42
1.0
 43
10.0
 44
1.0
 47
0.1
 48
0.1
 73
     0
 74
     0
 78
     8
 79
     2
140
3.5
141
0.0
143
0.0393701
146
0.71
147
1.5
172
     1
176
   256
177
   256
178
     2
271
     2
272
     3
274
     4
283
     0
284
     8
340
55
371
    -1
372
    -1
1001
ACAD_DSTYLE_DIMBREAK
1070
   391
1040
3.75
1001
ACAD_DSTYLE_DIMJAG
1070
   388
1040
1.5
1001
ACAD_DSTYLE_DIMARC_LENGTH_SYMBOL
1070
   379
1070
     1
1001
ACAD_DSTYLE_DIM_LINETYPE
1070
   380
1005
5B
1001
ACAD_DSTYLE_DIM_EXT1_LINETYPE
1070
   381
1005
5B
1001
ACAD_DSTYLE_DIM_EXT2_LINETYPE
1070
   382
1005
5B
  0
DIMSTYLE
105
5DA
330
A
100
AcDbSymbolTableRecord
100
AcDbDimStyleTableRecord
  2
AM_ISO$7
 70
     0
  4
"
 41
3.5
 42
1.0
 43
10.0
 44
1.0
 47
0.1
 48
0.1
 73
     0
 74
     0
 77
     1
 78
     8
 79
     2
140
3.5
141
0.0
143
0.0393701
146
0.71
147
1.5
172
     1
176
   256
177
   256
178
     2
271
     2
272
     3
274
     4
283
     0
284
     8
340
55
371
    -1
372
    -1
1001
ACAD_DSTYLE_DIMBREAK
1070
   391
1040
3.75
1001
ACAD_DSTYLE_DIMJAG
1070
   388
1040
1.5
1001
ACAD_DSTYLE_DIMARC_LENGTH_SYMBOL
1070
   379
1070
     1
1001
ACAD_DSTYLE_DIM_LINETYPE
1070
   380
1005
5B
1001
ACAD_DSTYLE_DIM_EXT1_LINETYPE
1070
   381
1005
5B
1001
ACAD_DSTYLE_DIM_EXT2_LINETYPE
1070
   382
1005
5B
  0
DIMSTYLE
105
5DB
330
A
100
AcDbSymbolTableRecord
100
AcDbDimStyleTableRecord
  2
AM_ISO$SF
 70
     0
  4
"
 41
3.5
 42
1.0
 43
10.0
 44
1.0
 47
0.1
 48
0.1
 73
     0
 74
     0
 75
     1
 76
     1
 77
     1
 78
     8
 79
     2
140
3.5
141
0.0
143
0.0393701
146
0.71
147
1.5
172
     1
176
   256
177
   256
178
     2
271
     2
272
     3
274
     4
283
     0
284
     8
340
55
371
    -1
372
    -1
1001
ACAD_DSTYLE_DIMBREAK
1070
   391
1040
3.75
1001
ACAD_DSTYLE_DIMJAG
1070
   388
1040
1.5
1001
ACAD_DSTYLE_DIMARC_LENGTH_SYMBOL
1070
   379
1070
     1
1001
ACAD_DSTYLE_DIM_LINETYPE
1070
   380
1005
5B
1001
ACAD_DSTYLE_DIM_EXT1_LINETYPE
1070
   381
1005
5B
1001
ACAD_DSTYLE_DIM_EXT2_LINETYPE
1070
   382
1005
5B
  0
DIMSTYLE
105
5E0
330
A
100
AcDbSymbolTableRecord
100
AcDbDimStyleTableRecord
  2
AM_ISO$SH
 70
     0
  4
"
 41
3.5
 42
1.0
 43
10.0
 44
1.0
 47
0.1
 48
0.1
 73
     0
 74
     0
 75
     1
 76
     1
 77
     1
 78
     8
 79
     2
140
3.5
141
0.0
143
0.0393701
144
2.0
146
0.71
147
1.5
172
     1
173
     1
176
   256
177
   256
178
     2
271
     2
272
     3
274
     4
283
     0
284
     8
340
55
343
5DC
371
    -1
372
    -1
1001
ACAD_DSTYLE_DIMBREAK
1070
   391
1040
3.75
1001
ACAD_DSTYLE_DIMJAG
1070
   388
1040
1.5
1001
ACAD_DSTYLE_DIMARC_LENGTH_SYMBOL
1070
   379
1070
     1
1001
ACAD_DSTYLE_DIM_LINETYPE
1070
   380
1005
5B
1001
ACAD_DSTYLE_DIM_EXT1_LINETYPE
1070
   381
1005
5B
1001
ACAD_DSTYLE_DIM_EXT2_LINETYPE
1070
   382
1005
5B
  0
ENDTAB
  0
TABLE
  2
BLOCK_RECORD
  5
1
330
0
100
AcDbSymbolTable
 70
     8
  0
BLOCK_RECORD
  5
6C
330
1
100
AcDbSymbolTableRecord
100
AcDbBlockTableRecord
  2
*Model_Space
340
6F
  0
BLOCK_RECORD
  5
68
330
1
100
AcDbSymbolTableRecord
100
AcDbBlockTableRecord
  2
*Paper_Space
340
6B
  0
BLOCK_RECORD
  5
70
330
1
100
AcDbSymbolTableRecord
100
AcDbBlockTableRecord
  2
*Paper_Space0
340
73
  0
BLOCK_RECORD
  5
9E
330
1
100
AcDbSymbolTableRecord
100
AcDbBlockTableRecord
  2
Filled-1
340
0
  0
BLOCK_RECORD
  5
BB
330
1
100
AcDbSymbolTableRecord
100
AcDbBlockTableRecord
  2
_Closed
340
0
  0
BLOCK_RECORD
  5
C2
330
1
100
AcDbSymbolTableRecord
100
AcDbBlockTableRecord
  2
DatumFilled45
340
0
  0
BLOCK_RECORD
  5
CD
330
1
100
AcDbSymbolTableRecord
100
AcDbBlockTableRecord
  2
Ilość kompletów
340
0
  0
BLOCK_RECORD
  5
DB
330
1
100
AcDbSymbolTableRecord
100
AcDbBlockTableRecord
  2
Skala
340
0
  0
BLOCK_RECORD
  5
5DC
330
1
100
AcDbSymbolTableRecord
100
AcDbBlockTableRecord
  2
GENAXEH
340
0
  0
ENDTAB
  0
ENDSEC
  0
SECTION
  2
BLOCKS
  0
BLOCK
  5
6D
330
6C
100
AcDbEntity
  8
0
100
AcDbBlockBegin
  2
*Model_Space
 70
     0
 10
0.0
 20
0.0
 30
0.0
  3
*Model_Space
  1

  0
ENDBLK
  5
6E
330
6C
100
AcDbEntity
  8
0
100
AcDbBlockEnd
  0
BLOCK
  5
69
330
68
100
AcDbEntity
 67
     1
  8
0
100
AcDbBlockBegin
  2
*Paper_Space
 70
     0
 10
0.0
 20
0.0
 30
0.0
  3
*Paper_Space
  1

  0
ENDBLK
  5
6A
330
68
100
AcDbEntity
 67
     1
  8
0
100
AcDbBlockEnd
  0
BLOCK
  5
71
330
70
100
AcDbEntity
 67
     1
  8
0
100
AcDbBlockBegin
  2
*Paper_Space0
 70
     0
 10
0.0
 20
0.0
 30
0.0
  3
*Paper_Space0
  1

  0
ENDBLK
  5
72
330
70
100
AcDbEntity
 67
     1
  8
0
100
AcDbBlockEnd
  0
BLOCK
  5
9F
330
9E
100
AcDbEntity
  8
0
100
AcDbBlockBegin
  2
Filled-1
 70
     0
 10
0.0
 20
0.0
 30
0.0
  3
Filled-1
  1

  0
LINE
  5
A1
330
9E
100
AcDbEntity
  8
0
 62
     0
100
AcDbLine
 10
-1.0
 20
0.0
 30
0.0
 11
0.0
 21
0.0
 31
0.0
  0
POLYLINE
  5
A2
330
9E
100
AcDbEntity
  8
0
 62
     0
100
AcDb2dPolyline
 66
     1
 10
0.0
 20
0.0
 30
0.0
 70
   128
  0
VERTEX
  5
A3
330
A2
100
AcDbEntity
  8
0
 62
     0
100
AcDbVertex
100
AcDb2dVertex
 10
-1.0
 20
-0.1
 30
0.0
  0
VERTEX
  5
A4
330
A2
100
AcDbEntity
  8
0
 62
     0
100
AcDbVertex
100
AcDb2dVertex
 10
0.0
 20
0.0
 30
0.0
  0
VERTEX
  5
A6
330
A2
100
AcDbEntity
  8
0
 62
     0
100
AcDbVertex
100
AcDb2dVertex
 10
-1.0
 20
0.1
 30
0.0
  0
VERTEX
  5
A7
330
A2
100
AcDbEntity
  8
0
 62
     0
100
AcDbVertex
100
AcDb2dVertex
 10
-1.0
 20
-0.1
 30
0.0
  0
SEQEND
  5
A5
330
A2
100
AcDbEntity
  8
0
 62
     0
  0
SOLID
  5
A8
330
9E
100
AcDbEntity
  8
0
 62
     0
100
AcDbTrace
 10
-1.0
 20
-0.1
 30
0.0
 11
0.0
 21
0.0
 31
0.0
 12
-1.0
 22
0.1
 32
0.0
 13
-1.0
 23
-0.1
 33
0.0
  0
LINE
  5
A9
330
9E
100
AcDbEntity
  8
0
 62
     0
100
AcDbLine
 10
-1.0
 20
-0.1
 30
0.0
 11
0.0
 21
0.0
 31
0.0
  0
LINE
  5
AA
330
9E
100
AcDbEntity
  8
0
 62
     0
100
AcDbLine
 10
0.0
 20
0.0
 30
0.0
 11
-1.0
 21
0.1
 31
0.0
  0
LINE
  5
AB
330
9E
100
AcDbEntity
  8
0
 62
     0
100
AcDbLine
 10
-1.0
 20
0.1
 30
0.0
 11
-1.0
 21
-0.1
 31
0.0
  0
ENDBLK
  5
A0
330
9E
100
AcDbEntity
  8
0
100
AcDbBlockEnd
  0
BLOCK
  5
C0
330
BB
100
AcDbEntity
  8
0
100
AcDbBlockBegin
  2
_Closed
 70
     0
 10
0.0
 20
0.0
 30
0.0
  3
_Closed
  1

  0
LINE
  5
BC
330
BB
100
AcDbEntity
  8
0
  6
ByBlock
 62
     0
370
    -2
100
AcDbLine
 10
-1.0
 20
0.1666666666666666
 30
0.0
 11
0.0
 21
0.0
 31
0.0
  0
LINE
  5
BD
330
BB
100
AcDbEntity
  8
0
  6
ByBlock
 62
     0
370
    -2
100
AcDbLine
 10
0.0
 20
0.0
 30
0.0
 11
-1.0
 21
-0.1666666666666666
 31
0.0
  0
LINE
  5
BE
330
BB
100
AcDbEntity
  8
0
  6
ByBlock
 62
     0
370
    -2
100
AcDbLine
 10
-1.0
 20
0.1666666666666666
 30
0.0
 11
-1.0
 21
-0.1666666666666666
 31
0.0
  0
LINE
  5
BF
330
BB
100
AcDbEntity
  8
0
  6
ByBlock
 62
     0
370
    -2
100
AcDbLine
 10
0.0
 20
0.0
 30
0.0
 11
-1.0
 21
0.0
 31
0.0
  0
ENDBLK
  5
C1
330
BB
100
AcDbEntity
  8
0
100
AcDbBlockEnd
  0
BLOCK
  5
C3
330
C2
100
AcDbEntity
  8
0
100
AcDbBlockBegin
  2
DatumFilled45
 70
     0
 10
0.0
 20
0.0
 30
0.0
  3
DatumFilled45
  1

  0
POLYLINE
  5
C5
330
C2
100
AcDbEntity
  8
0
 62
     0
100
AcDb2dPolyline
 66
     1
 10
0.0
 20
0.0
 30
0.0
 70
   128
  0
VERTEX
  5
C6
330
C5
100
AcDbEntity
  8
0
 62
     0
100
AcDbVertex
100
AcDb2dVertex
 10
0.0
 20
1.0
 30
0.0
  0
VERTEX
  5
C7
330
C5
100
AcDbEntity
  8
0
 62
     0
100
AcDbVertex
100
AcDb2dVertex
 10
0.0
 20
-1.0
 30
0.0
  0
VERTEX
  5
C9
330
C5
100
AcDbEntity
  8
0
 62
     0
100
AcDbVertex
100
AcDb2dVertex
 10
-1.0
 20
0.0
 30
0.0
  0
VERTEX
  5
CA
330
C5
100
AcDbEntity
  8
0
 62
     0
100
AcDbVertex
100
AcDb2dVertex
 10
0.0
 20
1.0
 30
0.0
  0
SEQEND
  5
C8
330
C5
100
AcDbEntity
  8
0
 62
     0
  0
SOLID
  5
CB
330
C2
100
AcDbEntity
  8
0
 62
     0
100
AcDbTrace
 10
0.0
 20
1.0
 30
0.0
 11
0.0
 21
-1.0
 31
0.0
 12
-1.0
 22
0.0
 32
0.0
 13
0.0
 23
1.0
 33
0.0
  0
ENDBLK
  5
C4
330
C2
100
AcDbEntity
  8
0
100
AcDbBlockEnd
  0
BLOCK
  5
CE
330
CD
100
AcDbEntity
  8
0
100
AcDbBlockBegin
  2
Ilość kompletów
 70
     0
 10
0.0
 20
0.0
 30
0.0
  3
Ilość kompletów
  1

  0
LINE
  5
D0
330
CD
100
AcDbEntity
  8
Geometria szkicu (ISO)
100
AcDbLine
 10
65.0
 20
-5.999999999999976
 30
0.0
 11
-65.0
 21
-6.000000000000013
 31
0.0
  0
LINE
  5
D1
330
CD
100
AcDbEntity
  8
Geometria szkicu (ISO)
100
AcDbLine
 10
-65.0
 20
-6.000000000000013
 30
0.0
 11
-65.0
 21
5.999999999999959
 31
0.0
  0
LINE
  5
D2
330
CD
100
AcDbEntity
  8
Geometria szkicu (ISO)
100
AcDbLine
 10
-65.0
 20
5.999999999999959
 30
0.0
 11
65.0
 21
6.000000000000013
 31
0.0
  0
LINE
  5
D3
330
CD
100
AcDbEntity
  8
Geometria szkicu (ISO)
100
AcDbLine
 10
65.0
 20
6.000000000000013
 30
0.0
 11
65.0
 21
-5.999999999999976
 31
0.0
  0
LINE
  5
D4
330
CD
100
AcDbEntity
  8
Geometria szkicu (ISO)
100
AcDbLine
 10
-65.0
 20
0.0
 30
0.0
 11
65.0
 21
0.0
 31
0.0
  0
LINE
  5
D5
330
CD
100
AcDbEntity
  8
Geometria szkicu (ISO)
100
AcDbLine
 10
-35.0
 20
5.999999999999976
 30
0.0
 11
-35.0
 21
-5.999999999999996
 31
0.0
  0
LINE
  5
D6
330
CD
100
AcDbEntity
  8
Geometria szkicu (ISO)
100
AcDbLine
 10
5.0
 20
5.999999999999996
 30
0.0
 11
5.0
 21
-5.999999999999976
 31
0.0
  0
MTEXT
  5
D7
330
CD
100
AcDbEntity
  8
Symbol (ISO)
100
AcDbMText
 10
5.0
 20
3.000000000000006
 30
0.0
 40
2.000000029802321
 41
60.0
 71
     4
 72
     1
  1
 Uwagi
  7
wibo Tekst notatki (ISO)
 73
     1
 44
1.0
  0
MTEXT
  5
D9
330
CD
100
AcDbEntity
  8
Symbol (ISO)
100
AcDbMText
 10
-35.0
 20
2.999999999999988
 30
0.0
 40
2.000000029802321
 41
39.99999999999995
 71
     4
 72
     1
  1
 Powierzchnia
  7
wibo Tekst notatki (ISO)
 73
     1
 44
1.0
  0
MTEXT
  5
DA
102
{ACAD_XDICTIONARY
360
634
102
}
330
CD
100
AcDbEntity
  8
Symbol (ISO)
100
AcDbMText
 10
-65.0
 20
2.999999999999952
 30
0.0
 40
2.000000029802321
 41
30.0
 71
     4
 72
     1
  1
 Ilo\U+015B\U+0107 komplet\U+00F3w
  7
wibo Tekst notatki (ISO)
 73
     1
 44
1.0
  0
ENDBLK
  5
CF
330
CD
100
AcDbEntity
  8
0
100
AcDbBlockEnd
  0
BLOCK
  5
DC
330
DB
100
AcDbEntity
  8
0
100
AcDbBlockBegin
  2
Skala
 70
     0
 10
0.0
 20
0.0
 30
0.0
  3
Skala
  1

  0
LINE
  5
DE
330
DB
100
AcDbEntity
  8
Wymiar (ISO)
100
AcDbLine
 10
0.0
 20
0.9999999999999921
 30
0.0
 11
50.0
 21
1.0
 31
0.0
  0
LINE
  5
DF
330
DB
100
AcDbEntity
  8
Wymiar (ISO)
100
AcDbLine
 10
-50.0
 20
-1.0
 30
0.0
 11
-50.0
 21
0.0
 31
0.0
  0
LINE
  5
E0
330
DB
100
AcDbEntity
  8
Wymiar (ISO)
100
AcDbLine
 10
-50.0
 20
0.9999999999999785
 30
0.0
 11
-50.0
 21
0.0
 31
0.0
  0
LINE
  5
E1
330
DB
100
AcDbEntity
  8
Wymiar (ISO)
100
AcDbLine
 10
-50.0
 20
0.9999999999999785
 30
0.0
 11
-49.0
 21
0.9999999999999742
 31
0.0
  0
LINE
  5
E2
330
DB
100
AcDbEntity
  8
Wymiar (ISO)
100
AcDbLine
 10
-50.0
 20
0.0
 30
0.0
 11
50.0
 21
0.0
 31
0.0
  0
LINE
  5
E3
330
DB
100
AcDbEntity
  8
Wymiar (ISO)
100
AcDbLine
 10
0.0
 20
-0.9999999999999921
 30
0.0
 11
-24.99999999999993
 21
-1.0
 31
0.0
  0
LINE
  5
E4
330
DB
100
AcDbEntity
  8
Wymiar (ISO)
100
AcDbLine
 10
-24.99999999999993
 20
0.9999999999999742
 30
0.0
 11
-39.99999999999993
 21
0.9999999999999785
 31
0.0
  0
LINE
  5
E5
330
DB
100
AcDbEntity
  8
Wymiar (ISO)
100
AcDbLine
 10
-39.99999999999993
 20
-1.0
 30
0.0
 11
-44.99999999999992
 21
-1.0
 31
0.0
  0
LINE
  5
E6
330
DB
100
AcDbEntity
  8
Wymiar (ISO)
100
AcDbLine
 10
-44.99999999999992
 20
-1.0
 30
0.0
 11
-39.99999999999993
 21
-1.0
 31
0.0
  0
MTEXT
  5
E7
330
DB
100
AcDbEntity
  8
Obramowanie (ISO)
100
AcDbMText
 10
51.0
 20
0.5000000000000027
 30
0.0
 40
1.00000001490116
 41
0.0
 71
     1
 72
     1
  1
\fTahoma|b0|i0;\H1.0000;1,47 A3
  7
wibo Tekst notatki (ISO)
 73
     1
 44
1.0
  0
ENDBLK
  5
DD
330
DB
100
AcDbEntity
  8
0
100
AcDbBlockEnd
  0
BLOCK
  5
5DE
330
5DC
100
AcDbEntity
  8
0
100
AcDbBlockBegin
  2
GENAXEH
 70
     0
 10
0.0
 20
0.0
 30
0.0
  3
GENAXEH
  1

  0
LINE
  5
5DD
330
5DC
100
AcDbEntity
  8
0
100
AcDbLine
 10
-1.0
 20
0.0
 30
0.0
 11
1.0
 21
0.0
 31
0.0
  0
ENDBLK
  5
5DF
330
5DC
100
AcDbEntity
  8
0
100
AcDbBlockEnd
  0
ENDSEC
  0
SECTION
  2
ENTITIES
  0
LINE
  5
E8
330
6C
100
AcDbEntity
  8
Widoczne (ISO)
100
AcDbLine
 10
2788.95701581436
 20
2698.785317285079
 30
0.0
 11
3238.957015814361
 21
2698.785317285079
 31
0.0
  0
LINE
  5
E9
330
6C
100
AcDbEntity
  8
Widoczne (ISO)
100
AcDbLine
 10
3238.957015814361
 20
2698.785317285079
 30
0.0
 11
3238.957015814361
 21
2968.785317285077
 31
0.0
  0
LINE
  5
EA
330
6C
100
AcDbEntity
  8
Widoczne (ISO)
100
AcDbLine
 10
3238.957015814361
 20
2968.785317285077
 30
0.0
 11
2788.95701581436
 21
2968.785317285077
 31
0.0
  0
LINE
  5
EB
330
6C
100
AcDbEntity
  8
Widoczne (ISO)
100
AcDbLine
 10
2788.95701581436
 20
2968.785317285077
 30
0.0
 11
2788.95701581436
 21
2698.785317285079
 31
0.0
  0
LINE
  5
EC
330
6C
100
AcDbEntity
  8
Widoczne (ISO)
100
AcDbLine
 10
574.9570158143592
 20
2698.785317285079
 30
0.0
 11
1024.957015814359
 21
2698.785317285079
 31
0.0
  0
LINE
  5
ED
330
6C
100
AcDbEntity
  8
Widoczne (ISO)
100
AcDbLine
 10
1024.957015814359
 20
2698.785317285079
 30
0.0
 11
1024.957015814359
 21
2968.785317285077
 31
0.0
  0
LINE
  5
EE
330
6C
100
AcDbEntity
  8
Widoczne (ISO)
100
AcDbLine
 10
1024.957015814359
 20
2968.785317285077
 30
0.0
 11
574.9570158143592
 21
2968.785317285077
 31
0.0
  0
LINE
  5
EF
330
6C
100
AcDbEntity
  8
Widoczne (ISO)
100
AcDbLine
 10
574.9570158143592
 20
2968.785317285077
 30
0.0
 11
574.9570158143592
 21
2698.785317285079
 31
0.0
  0
LINE
  5
F0
330
6C
100
AcDbEntity
  8
Widoczne (ISO)
100
AcDbLine
 10
3256.957015814361
 20
3283.785317285077
 30
0.0
 11
3256.957015814361
 21
2383.785317285078
 31
0.0
  0
LINE
  5
F1
330
6C
100
AcDbEntity
  8
Widoczne (ISO)
100
AcDbLine
 10
3256.957015814361
 20
2383.785317285078
 30
0.0
 11
2559.097015814359
 21
2383.785317285078
 31
0.0
  0
LINE
  5
F2
330
6C
100
AcDbEntity
  8
Widoczne (ISO)
100
AcDbLine
 10
2406.81701581435
 20
2383.785317285078
 30
0.0
 11
2338.122333791864
 21
2383.785317285078
 31
0.0
  0
LINE
  5
F3
330
6C
100
AcDbEntity
  8
Widoczne (ISO)
100
AcDbLine
 10
2026.879356792159
 20
2383.785317285078
 30
0.0
 11
2017.848952834176
 21
2383.785317285078
 31
0.0
  0
LINE
  5
F4
330
6C
100
AcDbEntity
  8
Widoczne (ISO)
100
AcDbLine
 10
2011.428685236772
 20
2383.785317285078
 30
0.0
 11
556.9570158143598
 21
2383.785317285078
 31
0.0
  0
LINE
  5
F5
330
6C
100
AcDbEntity
  8
Widoczne (ISO)
100
AcDbLine
 10
556.9570158143598
 20
2383.785317285078
 30
0.0
 11
556.9570158143598
 21
3283.785317285077
 31
0.0
  0
LINE
  5
F6
330
6C
100
AcDbEntity
  8
Widoczne (ISO)
100
AcDbLine
 10
556.9570158143598
 20
3283.785317285077
 30
0.0
 11
3256.957015814361
 21
3283.785317285077
 31
0.0
  0
ARC
  5
F7
330
6C
100
AcDbEntity
  8
Widoczne (ISO)
100
AcDbCircle
 10
833.9770158143521
 20
2691.765317285078
 30
0.0
 40
7.020000000000012
100
AcDbArc
 50
90.0
 51
180.0
  0
LINE
  5
F8
330
6C
100
AcDbEntity
  8
Widoczne (ISO)
100
AcDbLine
 10
826.9570158143521
 20
2691.765317285078
 30
0.0
 11
826.9570158143521
 21
2633.805317285078
 31
0.0
  0
ARC
  5
F9
330
6C
100
AcDbEntity
  8
Widoczne (ISO)
100
AcDbCircle
 10
833.9770158143521
 20
2633.805317285078
 30
0.0
 40
7.020000000000001
100
AcDbArc
 50
180.0
 51
270.0
  0
LINE
  5
FA
330
6C
100
AcDbEntity
  8
Widoczne (ISO)
100
AcDbLine
 10
833.9770158143521
 20
2626.785317285078
 30
0.0
 11
865.2070158143521
 21
2626.785317285078
 31
0.0
  0
LINE
  5
FB
330
6C
100
AcDbEntity
  8
Widoczne (ISO)
100
AcDbLine
 10
865.2070158143521
 20
2626.785317285078
 30
0.0
 11
865.2070158143521
 21
2629.485317285078
 31
0.0
  0
LINE
  5
FC
330
6C
100
AcDbEntity
  8
Widoczne (ISO)
100
AcDbLine
 10
865.2070158143521
 20
2629.485317285078
 30
0.0
 11
833.9770158143521
 21
2629.485317285078
 31
0.0
  0
ARC
  5
FD
330
6C
100
AcDbEntity
  8
Widoczne (ISO)
100
AcDbCircle
 10
833.9770158143521
 20
2633.805317285078
 30
0.0
 40
4.320000000000002
100
AcDbArc
 50
180.0
 51
270.0
  0
LINE
  5
FE
330
6C
100
AcDbEntity
  8
Widoczne (ISO)
100
AcDbLine
 10
829.657015814352
 20
2633.805317285078
 30
0.0
 11
829.657015814352
 21
2691.765317285078
 31
0.0
  0
ARC
  5
FF
330
6C
100
AcDbEntity
  8
Widoczne (ISO)
100
AcDbCircle
 10
833.9770158143521
 20
2691.765317285078
 30
0.0
 40
4.319999999999998
100
AcDbArc
 50
90.0
 51
180.0
  0
LINE
  5
100
330
6C
100
AcDbEntity
  8
Widoczne (ISO)
100
AcDbLine
 10
833.9770158143521
 20
2696.085317285078
 30
0.0
 11
848.557015814352
 21
2696.085317285078
 31
0.0
  0
LINE
  5
101
330
6C
100
AcDbEntity
  8
Widoczne (ISO)
100
AcDbLine
 10
848.557015814352
 20
2696.085317285078
 30
0.0
 11
848.557015814352
 21
2698.785317285079
 31
0.0
  0
LINE
  5
102
330
6C
100
AcDbEntity
  8
Widoczne (ISO)
100
AcDbLine
 10
848.557015814352
 20
2698.785317285079
 30
0.0
 11
833.9770158143521
 21
2698.785317285079
 31
0.0
  0
LINE
  5
103
330
6C
100
AcDbEntity
  8
Widoczne (ISO)
100
AcDbLine
 10
1039.357015814352
 20
2698.785317285079
 30
0.0
 11
1039.357015814352
 21
2696.085317285078
 31
0.0
  0
LINE
  5
104
330
6C
100
AcDbEntity
  8
Widoczne (ISO)
100
AcDbLine
 10
1039.357015814352
 20
2696.085317285078
 30
0.0
 11
1053.937015814352
 21
2696.085317285078
 31
0.0
  0
ARC
  5
105
330
6C
100
AcDbEntity
  8
Widoczne (ISO)
100
AcDbCircle
 10
1053.937015814352
 20
2691.765317285078
 30
0.0
 40
4.319999999999995
100
AcDbArc
 50
0.0
 51
90.0
  0
LINE
  5
106
330
6C
100
AcDbEntity
  8
Widoczne (ISO)
100
AcDbLine
 10
1058.257015814352
 20
2691.765317285078
 30
0.0
 11
1058.257015814352
 21
2633.805317285078
 31
0.0
  0
ARC
  5
107
330
6C
100
AcDbEntity
  8
Widoczne (ISO)
100
AcDbCircle
 10
1053.937015814352
 20
2633.805317285078
 30
0.0
 40
4.31999999999997
100
AcDbArc
 50
270.0
 51
0.0
  0
LINE
  5
108
330
6C
100
AcDbEntity
  8
Widoczne (ISO)
100
AcDbLine
 10
1053.937015814352
 20
2629.485317285078
 30
0.0
 11
903.907015814352
 21
2629.485317285078
 31
0.0
  0
LINE
  5
109
330
6C
100
AcDbEntity
  8
Widoczne (ISO)
100
AcDbLine
 10
903.907015814352
 20
2629.485317285078
 30
0.0
 11
903.907015814352
 21
2626.785317285078
 31
0.0
  0
LINE
  5
10A
330
6C
100
AcDbEntity
  8
Widoczne (ISO)
100
AcDbLine
 10
903.907015814352
 20
2626.785317285078
 30
0.0
 11
1053.937015814352
 21
2626.785317285078
 31
0.0
  0
ARC
  5
10B
330
6C
100
AcDbEntity
  8
Widoczne (ISO)
100
AcDbCircle
 10
1053.937015814352
 20
2633.805317285078
 30
0.0
 40
7.020000000000002
100
AcDbArc
 50
270.0
 51
0.0
  0
LINE
  5
10C
330
6C
100
AcDbEntity
  8
Widoczne (ISO)
100
AcDbLine
 10
1060.957015814352
 20
2633.805317285078
 30
0.0
 11
1060.957015814352
 21
2691.765317285078
 31
0.0
  0
ARC
  5
10D
330
6C
100
AcDbEntity
  8
Widoczne (ISO)
100
AcDbCircle
 10
1053.937015814352
 20
2691.765317285078
 30
0.0
 40
7.019999999999977
100
AcDbArc
 50
0.0
 51
90.0
  0
LINE
  5
10E
330
6C
100
AcDbEntity
  8
Widoczne (ISO)
100
AcDbLine
 10
1053.937015814352
 20
2698.785317285079
 30
0.0
 11
1039.357015814352
 21
2698.785317285079
 31
0.0
  0
LINE
  5
10F
330
6C
100
AcDbEntity
  8
Widoczne (ISO)
100
AcDbLine
 10
865.2070158143521
 20
2629.485317285078
 30
0.0
 11
865.516910116116
 21
2629.485317285078
 31
0.0
  0
LINE
  5
110
330
6C
100
AcDbEntity
  8
Widoczne (ISO)
100
AcDbLine
 10
882.7570158143522
 20
2629.485317285078
 30
0.0
 11
886.3570158143522
 21
2629.485317285078
 31
0.0
  0
LINE
  5
111
330
6C
100
AcDbEntity
  8
Widoczne (ISO)
100
AcDbLine
 10
903.5971215125881
 20
2629.485317285078
 30
0.0
 11
903.907015814352
 21
2629.485317285078
 31
0.0
  0
LINE
  5
112
330
6C
100
AcDbEntity
  8
Widoczne (ISO)
100
AcDbLine
 10
2774.557015814361
 20
2696.085317285078
 30
0.0
 11
2774.557015814361
 21
2698.785317285079
 31
0.0
  0
LINE
  5
113
330
6C
100
AcDbEntity
  8
Widoczne (ISO)
100
AcDbLine
 10
2774.557015814361
 20
2698.785317285079
 30
0.0
 11
2759.977015814361
 21
2698.785317285079
 31
0.0
  0
ARC
  5
114
330
6C
100
AcDbEntity
  8
Widoczne (ISO)
100
AcDbCircle
 10
2759.977015814361
 20
2691.765317285078
 30
0.0
 40
7.020000000000012
100
AcDbArc
 50
90.0
 51
180.0
  0
LINE
  5
115
330
6C
100
AcDbEntity
  8
Widoczne (ISO)
100
AcDbLine
 10
2752.957015814361
 20
2691.765317285078
 30
0.0
 11
2752.957015814361
 21
2633.805317285078
 31
0.0
  0
ARC
  5
116
330
6C
100
AcDbEntity
  8
Widoczne (ISO)
100
AcDbCircle
 10
2759.977015814361
 20
2633.805317285078
 30
0.0
 40
7.020000000000001
100
AcDbArc
 50
180.0
 51
270.0
  0
LINE
  5
117
330
6C
100
AcDbEntity
  8
Widoczne (ISO)
100
AcDbLine
 10
2759.977015814361
 20
2626.785317285078
 30
0.0
 11
2910.007015814361
 21
2626.785317285078
 31
0.0
  0
LINE
  5
118
330
6C
100
AcDbEntity
  8
Widoczne (ISO)
100
AcDbLine
 10
2910.007015814361
 20
2626.785317285078
 30
0.0
 11
2910.007015814361
 21
2629.485317285078
 31
0.0
  0
LINE
  5
119
330
6C
100
AcDbEntity
  8
Widoczne (ISO)
100
AcDbLine
 10
2910.007015814361
 20
2629.485317285078
 30
0.0
 11
2759.977015814361
 21
2629.485317285078
 31
0.0
  0
ARC
  5
11A
330
6C
100
AcDbEntity
  8
Widoczne (ISO)
100
AcDbCircle
 10
2759.977015814361
 20
2633.805317285078
 30
0.0
 40
4.320000000000002
100
AcDbArc
 50
180.0
 51
270.0
  0
LINE
  5
11B
330
6C
100
AcDbEntity
  8
Widoczne (ISO)
100
AcDbLine
 10
2755.657015814362
 20
2633.805317285078
 30
0.0
 11
2755.657015814362
 21
2691.765317285078
 31
0.0
  0
ARC
  5
11C
330
6C
100
AcDbEntity
  8
Widoczne (ISO)
100
AcDbCircle
 10
2759.977015814361
 20
2691.765317285078
 30
0.0
 40
4.319999999999998
100
AcDbArc
 50
90.0
 51
180.0
  0
LINE
  5
11D
330
6C
100
AcDbEntity
  8
Widoczne (ISO)
100
AcDbLine
 10
2759.977015814361
 20
2696.085317285078
 30
0.0
 11
2774.557015814361
 21
2696.085317285078
 31
0.0
  0
ARC
  5
11E
330
6C
100
AcDbEntity
  8
Widoczne (ISO)
100
AcDbCircle
 10
2979.937015814361
 20
2633.805317285078
 30
0.0
 40
7.020000000000002
100
AcDbArc
 50
270.0
 51
0.0
  0
LINE
  5
11F
330
6C
100
AcDbEntity
  8
Widoczne (ISO)
100
AcDbLine
 10
2986.957015814362
 20
2633.805317285078
 30
0.0
 11
2986.957015814362
 21
2691.765317285078
 31
0.0
  0
ARC
  5
120
330
6C
100
AcDbEntity
  8
Widoczne (ISO)
100
AcDbCircle
 10
2979.937015814361
 20
2691.765317285078
 30
0.0
 40
7.019999999999977
100
AcDbArc
 50
0.0
 51
90.0
  0
LINE
  5
121
330
6C
100
AcDbEntity
  8
Widoczne (ISO)
100
AcDbLine
 10
2979.937015814361
 20
2698.785317285079
 30
0.0
 11
2965.357015814361
 21
2698.785317285079
 31
0.0
  0
LINE
  5
122
330
6C
100
AcDbEntity
  8
Widoczne (ISO)
100
AcDbLine
 10
2965.357015814361
 20
2698.785317285079
 30
0.0
 11
2965.357015814361
 21
2696.085317285078
 31
0.0
  0
LINE
  5
123
330
6C
100
AcDbEntity
  8
Widoczne (ISO)
100
AcDbLine
 10
2965.357015814361
 20
2696.085317285078
 30
0.0
 11
2979.937015814361
 21
2696.085317285078
 31
0.0
  0
ARC
  5
124
330
6C
100
AcDbEntity
  8
Widoczne (ISO)
100
AcDbCircle
 10
2979.937015814361
 20
2691.765317285078
 30
0.0
 40
4.319999999999995
100
AcDbArc
 50
0.0
 51
90.0
  0
LINE
  5
125
330
6C
100
AcDbEntity
  8
Widoczne (ISO)
100
AcDbLine
 10
2984.257015814361
 20
2691.765317285078
 30
0.0
 11
2984.257015814361
 21
2633.805317285078
 31
0.0
  0
ARC
  5
126
330
6C
100
AcDbEntity
  8
Widoczne (ISO)
100
AcDbCircle
 10
2979.937015814361
 20
2633.805317285078
 30
0.0
 40
4.31999999999997
100
AcDbArc
 50
270.0
 51
0.0
  0
LINE
  5
127
330
6C
100
AcDbEntity
  8
Widoczne (ISO)
100
AcDbLine
 10
2979.937015814361
 20
2629.485317285078
 30
0.0
 11
2948.707015814361
 21
2629.485317285078
 31
0.0
  0
LINE
  5
128
330
6C
100
AcDbEntity
  8
Widoczne (ISO)
100
AcDbLine
 10
2948.707015814361
 20
2629.485317285078
 30
0.0
 11
2948.707015814361
 21
2626.785317285078
 31
0.0
  0
LINE
  5
129
330
6C
100
AcDbEntity
  8
Widoczne (ISO)
100
AcDbLine
 10
2948.707015814361
 20
2626.785317285078
 30
0.0
 11
2979.937015814361
 21
2626.785317285078
 31
0.0
  0
LINE
  5
12A
330
6C
100
AcDbEntity
  8
Widoczne (ISO)
100
AcDbLine
 10
2910.007015814361
 20
2629.485317285078
 30
0.0
 11
2910.316910116126
 21
2629.485317285078
 31
0.0
  0
LINE
  5
12B
330
6C
100
AcDbEntity
  8
Widoczne (ISO)
100
AcDbLine
 10
2927.557015814362
 20
2629.485317285078
 30
0.0
 11
2931.157015814362
 21
2629.485317285078
 31
0.0
  0
LINE
  5
12C
330
6C
100
AcDbEntity
  8
Widoczne (ISO)
100
AcDbLine
 10
2948.397121512597
 20
2629.485317285078
 30
0.0
 11
2948.707015814361
 21
2629.485317285078
 31
0.0
  0
LINE
  5
12D
330
6C
100
AcDbEntity
  8
Widoczne (ISO)
100
AcDbLine
 10
862.9570158143522
 20
2624.40414110512
 30
0.0
 11
862.9570158143522
 21
2615.985317285078
 31
0.0
  0
LINE
  5
12E
330
6C
100
AcDbEntity
  8
Widoczne (ISO)
100
AcDbLine
 10
862.9570158143522
 20
2615.985317285078
 30
0.0
 11
952.9570158143522
 21
2615.985317285078
 31
0.0
  0
LINE
  5
12F
330
6C
100
AcDbEntity
  8
Widoczne (ISO)
100
AcDbLine
 10
952.9570158143522
 20
2626.785317285078
 30
0.0
 11
952.9570158143522
 21
2615.985317285078
 31
0.0
  0
LINE
  5
130
330
6C
100
AcDbEntity
  8
Widoczne (ISO)
100
AcDbLine
 10
900.7570158143519
 20
2610.894148460535
 30
0.0
 11
900.7570158143519
 21
2561.985317285078
 31
0.0
  0
LINE
  5
131
330
6C
100
AcDbEntity
  8
Widoczne (ISO)
100
AcDbLine
 10
915.157015814352
 20
2561.985317285078
 30
0.0
 11
900.7570158143519
 21
2561.985317285078
 31
0.0
  0
LINE
  5
132
330
6C
100
AcDbEntity
  8
Widoczne (ISO)
100
AcDbLine
 10
915.157015814352
 20
2610.894148460535
 30
0.0
 11
915.157015814352
 21
2561.985317285078
 31
0.0
  0
LINE
  5
133
330
6C
100
AcDbEntity
  8
Widoczne (ISO)
100
AcDbLine
 10
2951.857015814361
 20
2626.785317285078
 30
0.0
 11
2906.857015814361
 21
2626.785317285078
 31
0.0
  0
ARC
  5
134
330
6C
100
AcDbEntity
  8
Widoczne (ISO)
100
AcDbCircle
 10
2910.457015814361
 20
2626.785317285078
 30
0.0
 40
3.600000000000018
100
AcDbArc
 50
180.0
 51
270.0
  0
LINE
  5
135
330
6C
100
AcDbEntity
  8
Widoczne (ISO)
100
AcDbLine
 10
2910.457015814361
 20
2623.185317285078
 30
0.0
 11
2948.257015814361
 21
2623.185317285078
 31
0.0
  0
ARC
  5
136
330
6C
100
AcDbEntity
  8
Widoczne (ISO)
100
AcDbCircle
 10
2948.257015814361
 20
2626.785317285078
 30
0.0
 40
3.600000000000003
100
AcDbArc
 50
270.0
 51
0.0
  0
LINE
  5
137
330
6C
100
AcDbEntity
  8
Widoczne (ISO)
100
AcDbLine
 10
2931.157015814361
 20
2640.285317285079
 30
0.0
 11
2931.157015814361
 21
2626.785317285078
 31
0.0
  0
LINE
  5
138
330
6C
100
AcDbEntity
  8
Widoczne (ISO)
100
AcDbLine
 10
2927.557015814361
 20
2626.785317285078
 30
0.0
 11
2927.557015814361
 21
2640.285317285079
 31
0.0
  0
LINE
  5
139
330
6C
100
AcDbEntity
  8
Widoczne (ISO)
100
AcDbLine
 10
2948.171106278691
 20
2628.585317285078
 30
0.0
 11
2948.171106278691
 21
2626.785317285078
 31
0.0
  0
SPLINE
  5
13A
330
6C
100
AcDbEntity
  8
Widoczne (ISO)
100
AcDbSpline
210
0.0
220
0.0
230
1.0
 70
    12
 71
     2
 72
     6
 73
     3
 74
     0
 42
0.0000000001
 43
0.0000000001
 40
0.0
 40
0.0
 40
0.0
 40
0.4124118197930399
 40
0.4124118197930399
 40
0.4124118197930399
 10
2949.978606441662
 20
2635.785317285078
 30
0.0
 41
1.0
 10
2949.033776810636
 20
2632.020314412893
 30
0.0
 41
1.001043315288898
 10
2948.171106278691
 20
2628.585317285078
 30
0.0
 41
1.0
  0
SPLINE
  5
13B
330
6C
100
AcDbEntity
  8
Widoczne (ISO)
100
AcDbSpline
210
0.0
220
0.0
230
1.0
 70
    12
 71
     2
 72
     6
 73
     3
 74
     0
 42
0.0000000001
 43
0.0000000001
 40
0.0
 40
0.0
 40
0.0
 40
0.2918858998468096
 40
0.2918858998468096
 40
0.2918858998468096
 10
2947.266789682281
 20
2640.285317285079
 30
0.0
 41
1.0
 10
2948.528099803556
 20
2638.193671076803
 30
0.0
 41
1.002464175917054
 10
2949.978606441662
 20
2635.785317285078
 30
0.0
 41
1.0
  0
LINE
  5
13C
330
6C
100
AcDbEntity
  8
Widoczne (ISO)
100
AcDbLine
 10
2945.456705252361
 20
2640.285317285079
 30
0.0
 11
2947.266789682281
 21
2640.285317285079
 31
0.0
  0
LINE
  5
13D
330
6C
100
AcDbEntity
  8
Widoczne (ISO)
100
AcDbLine
 10
2945.456705252361
 20
2626.785317285078
 30
0.0
 11
2945.456705252361
 21
2640.285317285079
 31
0.0
  0
LINE
  5
13E
330
6C
100
AcDbEntity
  8
Widoczne (ISO)
100
AcDbLine
 10
2910.542925350031
 20
2626.785317285078
 30
0.0
 11
2910.542925350031
 21
2628.585317285078
 31
0.0
  0
LINE
  5
13F
330
6C
100
AcDbEntity
  8
Widoczne (ISO)
100
AcDbLine
 10
2913.257326376363
 20
2640.285317285079
 30
0.0
 11
2913.257326376363
 21
2626.785317285078
 31
0.0
  0
LINE
  5
140
330
6C
100
AcDbEntity
  8
Widoczne (ISO)
100
AcDbLine
 10
2911.447241946442
 20
2640.285317285079
 30
0.0
 11
2913.257326376363
 21
2640.285317285079
 31
0.0
  0
SPLINE
  5
141
330
6C
100
AcDbEntity
  8
Widoczne (ISO)
100
AcDbSpline
210
0.0
220
0.0
230
1.0
 70
    12
 71
     2
 72
     6
 73
     3
 74
     0
 42
0.0000000001
 43
0.0000000001
 40
0.0
 40
0.0
 40
0.0
 40
0.2918858998468094
 40
0.2918858998468094
 40
0.2918858998468094
 10
2908.735425187061
 20
2635.785317285078
 30
0.0
 41
1.0
 10
2910.185931826143
 20
2638.193671078425
 30
0.0
 41
1.002464176047173
 10
2911.447241946442
 20
2640.285317285079
 30
0.0
 41
1.0
  0
SPLINE
  5
142
330
6C
100
AcDbEntity
  8
Widoczne (ISO)
100
AcDbSpline
210
0.0
220
0.0
230
1.0
 70
    12
 71
     2
 72
     6
 73
     3
 74
     0
 42
0.0000000001
 43
0.0000000001
 40
0.0
 40
0.0
 40
0.0
 40
0.4124118197930402
 40
0.4124118197930402
 40
0.4124118197930402
 10
2910.542925350031
 20
2628.585317285078
 30
0.0
 41
1.0
 10
2909.680254817945
 20
2632.020314413455
 30
0.0
 41
1.001043315253878
 10
2908.735425187061
 20
2635.785317285078
 30
0.0
 41
1.0
  0
LINE
  5
143
330
6C
100
AcDbEntity
  8
Widoczne (ISO)
100
AcDbLine
 10
2945.456705252361
 20
2640.285317285079
 30
0.0
 11
2931.157015814361
 21
2640.285317285079
 31
0.0
  0
LINE
  5
144
330
6C
100
AcDbEntity
  8
Widoczne (ISO)
100
AcDbLine
 10
2927.557015814361
 20
2640.285317285079
 30
0.0
 11
2913.257326376363
 21
2640.285317285079
 31
0.0
  0
LINE
  5
145
330
6C
100
AcDbEntity
  8
Widoczne (ISO)
100
AcDbLine
 10
907.0570158143524
 20
2626.785317285078
 30
0.0
 11
862.0570158143522
 21
2626.785317285078
 31
0.0
  0
ARC
  5
146
330
6C
100
AcDbEntity
  8
Widoczne (ISO)
100
AcDbCircle
 10
865.6570158143521
 20
2626.785317285078
 30
0.0
 40
3.600000000000018
100
AcDbArc
 50
180.0
 51
270.0
  0
LINE
  5
147
330
6C
100
AcDbEntity
  8
Widoczne (ISO)
100
AcDbLine
 10
865.6570158143521
 20
2623.185317285078
 30
0.0
 11
903.4570158143523
 21
2623.185317285078
 31
0.0
  0
ARC
  5
148
330
6C
100
AcDbEntity
  8
Widoczne (ISO)
100
AcDbCircle
 10
903.4570158143523
 20
2626.785317285078
 30
0.0
 40
3.600000000000003
100
AcDbArc
 50
270.0
 51
0.0
  0
LINE
  5
149
330
6C
100
AcDbEntity
  8
Widoczne (ISO)
100
AcDbLine
 10
886.3570158143522
 20
2640.285317285079
 30
0.0
 11
886.3570158143522
 21
2626.785317285078
 31
0.0
  0
LINE
  5
14A
330
6C
100
AcDbEntity
  8
Widoczne (ISO)
100
AcDbLine
 10
882.7570158143522
 20
2626.785317285078
 30
0.0
 11
882.7570158143522
 21
2640.285317285079
 31
0.0
  0
LINE
  5
14B
330
6C
100
AcDbEntity
  8
Widoczne (ISO)
100
AcDbLine
 10
903.3711062786824
 20
2628.585317285078
 30
0.0
 11
903.3711062786824
 21
2626.785317285078
 31
0.0
  0
SPLINE
  5
14C
330
6C
100
AcDbEntity
  8
Widoczne (ISO)
100
AcDbSpline
210
0.0
220
0.0
230
1.0
 70
    12
 71
     2
 72
     6
 73
     3
 74
     0
 42
0.0000000001
 43
0.0000000001
 40
0.0
 40
0.0
 40
0.0
 40
0.4124118197930399
 40
0.4124118197930399
 40
0.4124118197930399
 10
905.1786064416535
 20
2635.785317285078
 30
0.0
 41
1.0
 10
904.2337768106275
 20
2632.020314412893
 30
0.0
 41
1.001043315288898
 10
903.3711062786824
 20
2628.585317285078
 30
0.0
 41
1.0
  0
SPLINE
  5
14D
330
6C
100
AcDbEntity
  8
Widoczne (ISO)
100
AcDbSpline
210
0.0
220
0.0
230
1.0
 70
    12
 71
     2
 72
     6
 73
     3
 74
     0
 42
0.0000000001
 43
0.0000000001
 40
0.0
 40
0.0
 40
0.0
 40
0.2918858998468096
 40
0.2918858998468096
 40
0.2918858998468096
 10
902.4667896822714
 20
2640.285317285079
 30
0.0
 41
1.0
 10
903.728099803547
 20
2638.193671076803
 30
0.0
 41
1.002464175917054
 10
905.1786064416535
 20
2635.785317285078
 30
0.0
 41
1.0
  0
LINE
  5
14E
330
6C
100
AcDbEntity
  8
Widoczne (ISO)
100
AcDbLine
 10
900.6567052523507
 20
2640.285317285079
 30
0.0
 11
902.4667896822714
 21
2640.285317285079
 31
0.0
  0
LINE
  5
14F
330
6C
100
AcDbEntity
  8
Widoczne (ISO)
100
AcDbLine
 10
900.6567052523507
 20
2626.785317285078
 30
0.0
 11
900.6567052523507
 21
2640.285317285079
 31
0.0
  0
LINE
  5
150
330
6C
100
AcDbEntity
  8
Widoczne (ISO)
100
AcDbLine
 10
865.7429253500222
 20
2626.785317285078
 30
0.0
 11
865.7429253500222
 21
2628.585317285078
 31
0.0
  0
LINE
  5
151
330
6C
100
AcDbEntity
  8
Widoczne (ISO)
100
AcDbLine
 10
868.4573263763537
 20
2640.285317285079
 30
0.0
 11
868.4573263763537
 21
2626.785317285078
 31
0.0
  0
LINE
  5
152
330
6C
100
AcDbEntity
  8
Widoczne (ISO)
100
AcDbLine
 10
866.6472419464332
 20
2640.285317285079
 30
0.0
 11
868.4573263763537
 21
2640.285317285079
 31
0.0
  0
SPLINE
  5
153
330
6C
100
AcDbEntity
  8
Widoczne (ISO)
100
AcDbSpline
210
0.0
220
0.0
230
1.0
 70
    12
 71
     2
 72
     6
 73
     3
 74
     0
 42
0.0000000001
 43
0.0000000001
 40
0.0
 40
0.0
 40
0.0
 40
0.2918858998468094
 40
0.2918858998468094
 40
0.2918858998468094
 10
863.9354251870509
 20
2635.785317285078
 30
0.0
 41
1.0
 10
865.3859318261352
 20
2638.193671078425
 30
0.0
 41
1.002464176047173
 10
866.6472419464328
 20
2640.285317285079
 30
0.0
 41
1.0
  0
SPLINE
  5
154
330
6C
100
AcDbEntity
  8
Widoczne (ISO)
100
AcDbSpline
210
0.0
220
0.0
230
1.0
 70
    12
 71
     2
 72
     6
 73
     3
 74
     0
 42
0.0000000001
 43
0.0000000001
 40
0.0
 40
0.0
 40
0.0
 40
0.4124118197930402
 40
0.4124118197930402
 40
0.4124118197930402
 10
865.7429253500222
 20
2628.585317285078
 30
0.0
 41
1.0
 10
864.8802548179357
 20
2632.020314413455
 30
0.0
 41
1.001043315253878
 10
863.9354251870509
 20
2635.785317285078
 30
0.0
 41
1.0
  0
LINE
  5
155
330
6C
100
AcDbEntity
  8
Widoczne (ISO)
100
AcDbLine
 10
900.6567052523504
 20
2640.285317285079
 30
0.0
 11
886.3570158143522
 21
2640.285317285079
 31
0.0
  0
LINE
  5
156
330
6C
100
AcDbEntity
  8
Widoczne (ISO)
100
AcDbLine
 10
882.7570158143524
 20
2640.285317285079
 30
0.0
 11
868.4573263763539
 21
2640.285317285079
 31
0.0
  0
LINE
  5
157
330
6C
100
AcDbEntity
  8
Widoczne (ISO)
100
AcDbLine
 10
1033.057015814352
 20
2689.065317285078
 30
0.0
 11
1033.057015814352
 21
2668.185317285078
 31
0.0
  0
LINE
  5
158
330
6C
100
AcDbEntity
  8
Widoczne (ISO)
100
AcDbLine
 10
1033.057015814352
 20
2668.185317285078
 30
0.0
 11
1035.757015814352
 21
2668.185317285078
 31
0.0
  0
LINE
  5
159
330
6C
100
AcDbEntity
  8
Widoczne (ISO)
100
AcDbLine
 10
1035.757015814352
 20
2668.185317285078
 30
0.0
 11
1035.757015814352
 21
2689.065317285078
 31
0.0
  0
ARC
  5
15A
330
6C
100
AcDbEntity
  8
Widoczne (ISO)
100
AcDbCircle
 10
1028.737015814352
 20
2689.065317285078
 30
0.0
 40
7.020000000000036
100
AcDbArc
 50
0.0
 51
90.0
  0
LINE
  5
15B
330
6C
100
AcDbEntity
  8
Widoczne (ISO)
100
AcDbLine
 10
1028.737015814352
 20
2696.085317285078
 30
0.0
 11
894.4570158143523
 21
2696.085317285078
 31
0.0
  0
LINE
  5
15C
330
6C
100
AcDbEntity
  8
Widoczne (ISO)
100
AcDbLine
 10
894.4570158143523
 20
2696.085317285078
 30
0.0
 11
894.4570158143523
 21
2693.385317285078
 31
0.0
  0
LINE
  5
15D
330
6C
100
AcDbEntity
  8
Widoczne (ISO)
100
AcDbLine
 10
894.4570158143523
 20
2693.385317285078
 30
0.0
 11
1028.737015814352
 21
2693.385317285078
 31
0.0
  0
ARC
  5
15E
330
6C
100
AcDbEntity
  8
Widoczne (ISO)
100
AcDbCircle
 10
1028.737015814352
 20
2689.065317285078
 30
0.0
 40
4.319999999999995
100
AcDbArc
 50
0.0
 51
90.0
  0
LINE
  5
15F
330
6C
100
AcDbEntity
  8
Widoczne (ISO)
100
AcDbLine
 10
874.6570158143523
 20
2693.385317285078
 30
0.0
 11
874.6570158143523
 21
2696.085317285078
 31
0.0
  0
LINE
  5
160
330
6C
100
AcDbEntity
  8
Widoczne (ISO)
100
AcDbLine
 10
874.6570158143523
 20
2696.085317285078
 30
0.0
 11
837.7570158143523
 21
2696.085317285078
 31
0.0
  0
LINE
  5
161
330
6C
100
AcDbEntity
  8
Widoczne (ISO)
100
AcDbLine
 10
837.7570158143523
 20
2696.085317285078
 30
0.0
 11
837.7570158143523
 21
2693.385317285078
 31
0.0
  0
LINE
  5
162
330
6C
100
AcDbEntity
  8
Widoczne (ISO)
100
AcDbLine
 10
837.7570158143523
 20
2693.385317285078
 30
0.0
 11
874.6570158143523
 21
2693.385317285078
 31
0.0
  0
LINE
  5
163
330
6C
100
AcDbEntity
  8
Widoczne (ISO)
100
AcDbLine
 10
874.6570158143523
 20
2696.085317285078
 30
0.0
 11
878.4370158143516
 21
2696.085317285078
 31
0.0
  0
LINE
  5
164
330
6C
100
AcDbEntity
  8
Widoczne (ISO)
100
AcDbLine
 10
890.6770158143517
 20
2696.085317285078
 30
0.0
 11
894.4570158143523
 21
2696.085317285078
 31
0.0
  0
LINE
  5
165
330
6C
100
AcDbEntity
  8
Widoczne (ISO)
100
AcDbLine
 10
1006.057015814352
 20
2665.485317285078
 30
0.0
 11
1035.037015814352
 21
2665.485317285078
 31
0.0
  0
ARC
  5
166
330
6C
100
AcDbEntity
  8
Widoczne (ISO)
100
AcDbCircle
 10
1035.037015814352
 20
2672.505317285078
 30
0.0
 40
7.020000000000032
100
AcDbArc
 50
270.0
 51
0.0
  0
LINE
  5
167
330
6C
100
AcDbEntity
  8
Widoczne (ISO)
100
AcDbLine
 10
1042.057015814352
 20
2672.505317285078
 30
0.0
 11
1042.057015814352
 21
2696.085317285078
 31
0.0
  0
LINE
  5
168
330
6C
100
AcDbEntity
  8
Widoczne (ISO)
100
AcDbLine
 10
1042.057015814352
 20
2696.085317285078
 30
0.0
 11
1039.357015814352
 21
2696.085317285078
 31
0.0
  0
LINE
  5
169
330
6C
100
AcDbEntity
  8
Widoczne (ISO)
100
AcDbLine
 10
1039.357015814352
 20
2696.085317285078
 30
0.0
 11
1039.357015814352
 21
2672.505317285078
 31
0.0
  0
ARC
  5
16A
330
6C
100
AcDbEntity
  8
Widoczne (ISO)
100
AcDbCircle
 10
1035.037015814352
 20
2672.505317285078
 30
0.0
 40
4.320000000000023
100
AcDbArc
 50
270.0
 51
0.0
  0
LINE
  5
16B
330
6C
100
AcDbEntity
  8
Widoczne (ISO)
100
AcDbLine
 10
1035.037015814352
 20
2668.185317285078
 30
0.0
 11
1006.057015814352
 21
2668.185317285078
 31
0.0
  0
LINE
  5
16C
330
6C
100
AcDbEntity
  8
Widoczne (ISO)
100
AcDbLine
 10
1006.057015814352
 20
2668.185317285078
 30
0.0
 11
1006.057015814352
 21
2665.485317285078
 31
0.0
  0
LINE
  5
16D
330
6C
100
AcDbEntity
  8
Widoczne (ISO)
100
AcDbLine
 10
2780.857015814362
 20
2668.185317285078
 30
0.0
 11
2780.857015814362
 21
2689.065317285078
 31
0.0
  0
ARC
  5
16E
330
6C
100
AcDbEntity
  8
Widoczne (ISO)
100
AcDbCircle
 10
2785.177015814362
 20
2689.065317285078
 30
0.0
 40
4.319999999999984
100
AcDbArc
 50
90.0
 51
180.0
  0
LINE
  5
16F
330
6C
100
AcDbEntity
  8
Widoczne (ISO)
100
AcDbLine
 10
2785.177015814362
 20
2693.385317285078
 30
0.0
 11
2919.457015814362
 21
2693.385317285078
 31
0.0
  0
LINE
  5
170
330
6C
100
AcDbEntity
  8
Widoczne (ISO)
100
AcDbLine
 10
2919.457015814362
 20
2693.385317285078
 30
0.0
 11
2919.457015814362
 21
2696.085317285078
 31
0.0
  0
LINE
  5
171
330
6C
100
AcDbEntity
  8
Widoczne (ISO)
100
AcDbLine
 10
2919.457015814362
 20
2696.085317285078
 30
0.0
 11
2785.177015814362
 21
2696.085317285078
 31
0.0
  0
ARC
  5
172
330
6C
100
AcDbEntity
  8
Widoczne (ISO)
100
AcDbCircle
 10
2785.177015814362
 20
2689.065317285078
 30
0.0
 40
7.020000000000025
100
AcDbArc
 50
90.0
 51
180.0
  0
LINE
  5
173
330
6C
100
AcDbEntity
  8
Widoczne (ISO)
100
AcDbLine
 10
2778.157015814362
 20
2689.065317285078
 30
0.0
 11
2778.157015814362
 21
2668.185317285078
 31
0.0
  0
LINE
  5
174
330
6C
100
AcDbEntity
  8
Widoczne (ISO)
100
AcDbLine
 10
2778.157015814362
 20
2668.185317285078
 30
0.0
 11
2780.857015814362
 21
2668.185317285078
 31
0.0
  0
LINE
  5
175
330
6C
100
AcDbEntity
  8
Widoczne (ISO)
100
AcDbLine
 10
2939.257015814363
 20
2696.085317285078
 30
0.0
 11
2939.257015814363
 21
2693.385317285078
 31
0.0
  0
LINE
  5
176
330
6C
100
AcDbEntity
  8
Widoczne (ISO)
100
AcDbLine
 10
2939.257015814363
 20
2693.385317285078
 30
0.0
 11
2976.157015814362
 21
2693.385317285078
 31
0.0
  0
LINE
  5
177
330
6C
100
AcDbEntity
  8
Widoczne (ISO)
100
AcDbLine
 10
2976.157015814362
 20
2693.385317285078
 30
0.0
 11
2976.157015814362
 21
2696.085317285078
 31
0.0
  0
LINE
  5
178
330
6C
100
AcDbEntity
  8
Widoczne (ISO)
100
AcDbLine
 10
2976.157015814362
 20
2696.085317285078
 30
0.0
 11
2939.257015814363
 21
2696.085317285078
 31
0.0
  0
LINE
  5
179
330
6C
100
AcDbEntity
  8
Widoczne (ISO)
100
AcDbLine
 10
2919.457015814362
 20
2696.085317285078
 30
0.0
 11
2923.237015814363
 21
2696.085317285078
 31
0.0
  0
LINE
  5
17A
330
6C
100
AcDbEntity
  8
Widoczne (ISO)
100
AcDbLine
 10
2935.477015814362
 20
2696.085317285078
 30
0.0
 11
2939.257015814361
 21
2696.085317285078
 31
0.0
  0
LINE
  5
17B
330
6C
100
AcDbEntity
  8
Widoczne (ISO)
100
AcDbLine
 10
2778.877015814362
 20
2665.485317285078
 30
0.0
 11
2807.857015814362
 21
2665.485317285078
 31
0.0
  0
LINE
  5
17C
330
6C
100
AcDbEntity
  8
Widoczne (ISO)
100
AcDbLine
 10
2807.857015814362
 20
2665.485317285078
 30
0.0
 11
2807.857015814362
 21
2668.185317285078
 31
0.0
  0
LINE
  5
17D
330
6C
100
AcDbEntity
  8
Widoczne (ISO)
100
AcDbLine
 10
2807.857015814362
 20
2668.185317285078
 30
0.0
 11
2778.877015814362
 21
2668.185317285078
 31
0.0
  0
ARC
  5
17E
330
6C
100
AcDbEntity
  8
Widoczne (ISO)
100
AcDbCircle
 10
2778.877015814362
 20
2672.505317285078
 30
0.0
 40
4.320000000000018
100
AcDbArc
 50
180.0
 51
270.0
  0
LINE
  5
17F
330
6C
100
AcDbEntity
  8
Widoczne (ISO)
100
AcDbLine
 10
2774.557015814363
 20
2672.505317285078
 30
0.0
 11
2774.557015814363
 21
2696.085317285078
 31
0.0
  0
LINE
  5
180
330
6C
100
AcDbEntity
  8
Widoczne (ISO)
100
AcDbLine
 10
2774.557015814363
 20
2696.085317285078
 30
0.0
 11
2771.857015814362
 21
2696.085317285078
 31
0.0
  0
LINE
  5
181
330
6C
100
AcDbEntity
  8
Widoczne (ISO)
100
AcDbLine
 10
2771.857015814362
 20
2696.085317285078
 30
0.0
 11
2771.857015814362
 21
2672.505317285078
 31
0.0
  0
ARC
  5
182
330
6C
100
AcDbEntity
  8
Widoczne (ISO)
100
AcDbCircle
 10
2778.877015814362
 20
2672.505317285078
 30
0.0
 40
7.020000000000022
100
AcDbArc
 50
180.0
 51
270.0
  0
ARC
  5
183
330
6C
100
AcDbEntity
  8
Widoczne (ISO)
100
AcDbCircle
 10
974.7010158143536
 20
2486.889317285077
 30
0.0
 40
2.304
100
AcDbArc
 50
180.0
 51
269.9999999999682
  0
LINE
  5
184
330
6C
100
AcDbEntity
  8
Widoczne (ISO)
100
AcDbLine
 10
972.3970158143528
 20
2486.889317285077
 30
0.0
 11
972.3970158143528
 21
2585.601317285078
 31
0.0
  0
ARC
  5
185
330
6C
100
AcDbEntity
  8
Widoczne (ISO)
100
AcDbCircle
 10
974.7010158143531
 20
2585.601317285078
 30
0.0
 40
2.304000000000324
100
AcDbArc
 50
89.99999999999204
 51
180.0
  0
LINE
  5
186
330
6C
100
AcDbEntity
  8
Widoczne (ISO)
100
AcDbLine
 10
974.7010158143538
 20
2587.905317285078
 30
0.0
 11
1033.957015814353
 21
2587.905317285078
 31
0.0
  0
LINE
  5
187
330
6C
100
AcDbEntity
  8
Widoczne (ISO)
100
AcDbLine
 10
1033.957015814353
 20
2587.905317285078
 30
0.0
 11
1033.957015814353
 21
2589.345317285077
 31
0.0
  0
LINE
  5
188
330
6C
100
AcDbEntity
  8
Widoczne (ISO)
100
AcDbLine
 10
1033.957015814353
 20
2589.345317285077
 30
0.0
 11
974.7010158128624
 21
2589.345317283588
 31
0.0
  0
ARC
  5
189
330
6C
100
AcDbEntity
  8
Widoczne (ISO)
100
AcDbCircle
 10
974.7010158143526
 20
2585.601317285078
 30
0.0
 40
3.744000000000021
100
AcDbArc
 50
90.00000002281437
 51
180.0
  0
LINE
  5
18A
330
6C
100
AcDbEntity
  8
Widoczne (ISO)
100
AcDbLine
 10
970.9570158143527
 20
2585.601317285078
 30
0.0
 11
970.9570158143533
 21
2486.889317285077
 31
0.0
  0
ARC
  5
18B
330
6C
100
AcDbEntity
  8
Widoczne (ISO)
100
AcDbCircle
 10
974.7010158143536
 20
2486.889317285077
 30
0.0
 40
3.744000000000006
100
AcDbArc
 50
180.0
 51
269.9999999999804
  0
LINE
  5
18C
330
6C
100
AcDbEntity
  8
Widoczne (ISO)
100
AcDbLine
 10
974.7010158143524
 20
2483.145317285078
 30
0.0
 11
2839.213015814353
 21
2483.145317285073
 31
0.0
  0
ARC
  5
18D
330
6C
100
AcDbEntity
  8
Widoczne (ISO)
100
AcDbCircle
 10
2839.213015814353
 20
2486.889317285073
 30
0.0
 40
3.744000000000122
100
AcDbArc
 50
270.0000000000049
 51
0.0
  0
LINE
  5
18E
330
6C
100
AcDbEntity
  8
Widoczne (ISO)
100
AcDbLine
 10
2842.957015814354
 20
2486.889317285073
 30
0.0
 11
2842.957015814354
 21
2585.601317285074
 31
0.0
  0
ARC
  5
18F
330
6C
100
AcDbEntity
  8
Widoczne (ISO)
100
AcDbCircle
 10
2839.213015814353
 20
2585.601317285073
 30
0.0
 40
3.743999999999464
100
AcDbArc
 50
0.0
 51
90.00000000000978
  0
LINE
  5
190
330
6C
100
AcDbEntity
  8
Widoczne (ISO)
100
AcDbLine
 10
2839.213015814353
 20
2589.345317285073
 30
0.0
 11
2779.957015814354
 21
2589.345317285073
 31
0.0
  0
LINE
  5
191
330
6C
100
AcDbEntity
  8
Widoczne (ISO)
100
AcDbLine
 10
2779.957015814354
 20
2589.345317285073
 30
0.0
 11
2779.957015814354
 21
2587.905317285074
 31
0.0
  0
LINE
  5
192
330
6C
100
AcDbEntity
  8
Widoczne (ISO)
100
AcDbLine
 10
2779.957015814354
 20
2587.905317285074
 30
0.0
 11
2839.213015814353
 21
2587.905317285073
 31
0.0
  0
ARC
  5
193
330
6C
100
AcDbEntity
  8
Widoczne (ISO)
100
AcDbCircle
 10
2839.213015814353
 20
2585.601317285073
 30
0.0
 40
2.303999999999795
100
AcDbArc
 50
0.0
 51
90.00000000001589
  0
LINE
  5
194
330
6C
100
AcDbEntity
  8
Widoczne (ISO)
100
AcDbLine
 10
2841.517015814354
 20
2585.601317285074
 30
0.0
 11
2841.517015814354
 21
2486.889317285073
 31
0.0
  0
ARC
  5
195
330
6C
100
AcDbEntity
  8
Widoczne (ISO)
100
AcDbCircle
 10
2839.213015814353
 20
2486.889317285073
 30
0.0
 40
2.304000000000003
100
AcDbArc
 50
270.0
 51
0.0
  0
LINE
  5
196
330
6C
100
AcDbEntity
  8
Widoczne (ISO)
100
AcDbLine
 10
2839.213015814353
 20
2484.585317285073
 30
0.0
 11
974.7010158143524
 21
2484.585317285078
 31
0.0
  0
LINE
  5
197
330
6C
100
AcDbEntity
  8
Widoczne (ISO)
100
AcDbLine
 10
2824.957015814354
 20
2589.345317285074
 30
0.0
 11
2824.957015814354
 21
2590.785317285073
 31
0.0
  0
LINE
  5
198
330
6C
100
AcDbEntity
  8
Widoczne (ISO)
100
AcDbLine
 10
2824.957015814354
 20
2590.785317285073
 30
0.0
 11
988.957015814357
 21
2590.785317285078
 31
0.0
  0
LINE
  5
199
330
6C
100
AcDbEntity
  8
Widoczne (ISO)
100
AcDbLine
 10
988.9570158143568
 20
2590.785317285078
 30
0.0
 11
988.9570158143568
 21
2589.345317285078
 31
0.0
  0
LINE
  5
19A
330
6C
100
AcDbEntity
  8
Widoczne (ISO)
100
AcDbLine
 10
988.9570158143568
 20
2589.345317285078
 30
0.0
 11
2824.957015814354
 21
2589.345317285074
 31
0.0
  0
LINE
  5
19B
330
6C
100
AcDbEntity
  8
Widoczne (ISO)
100
AcDbLine
 10
955.065846989809
 20
2540.385317285078
 30
0.0
 11
936.7570158143522
 21
2540.385317285078
 31
0.0
  0
LINE
  5
19C
330
6C
100
AcDbEntity
  8
Widoczne (ISO)
100
AcDbLine
 10
936.7570158143523
 20
2525.985317285079
 30
0.0
 11
936.7570158143522
 21
2540.385317285078
 31
0.0
  0
LINE
  5
19D
330
6C
100
AcDbEntity
  8
Widoczne (ISO)
100
AcDbLine
 10
955.0658469898094
 20
2525.985317285079
 30
0.0
 11
936.7570158143523
 21
2525.985317285079
 31
0.0
  0
LINE
  5
19E
330
6C
100
AcDbEntity
  8
Widoczne (ISO)
100
AcDbLine
 10
960.157015814352
 20
2497.185317285079
 30
0.0
 11
970.9570158143518
 21
2497.185317285079
 31
0.0
  0
LINE
  5
19F
330
6C
100
AcDbEntity
  8
Widoczne (ISO)
100
AcDbLine
 10
970.9570158143518
 20
2497.185317285079
 30
0.0
 11
970.9570158143518
 21
2569.185317285079
 31
0.0
  0
LINE
  5
1A0
330
6C
100
AcDbEntity
  8
Widoczne (ISO)
100
AcDbLine
 10
970.9570158143518
 20
2569.185317285079
 30
0.0
 11
960.157015814352
 21
2569.185317285079
 31
0.0
  0
LINE
  5
1A1
330
6C
100
AcDbEntity
  8
Widoczne (ISO)
100
AcDbLine
 10
960.157015814352
 20
2569.185317285079
 30
0.0
 11
960.157015814352
 21
2497.185317285079
 31
0.0
  0
CIRCLE
  5
1A2
330
6C
100
AcDbEntity
  8
Widoczne (ISO)
100
AcDbCircle
 10
907.9570158143519
 20
2533.185317285079
 30
0.0
 40
28.79999999999995
  0
CIRCLE
  5
1A3
330
6C
100
AcDbEntity
  8
Widoczne (ISO)
100
AcDbCircle
 10
907.9570158143519
 20
2533.185317285079
 30
0.0
 40
25.19999999999994
  0
LINE
  5
1A4
330
6C
100
AcDbEntity
  8
Widoczne (ISO)
100
AcDbLine
 10
973.8370158143531
 20
2486.025317285078
 30
0.0
 11
979.237015814353
 21
2486.025317285078
 31
0.0
  0
LINE
  5
1A5
330
6C
100
AcDbEntity
  8
Widoczne (ISO)
100
AcDbLine
 10
979.237015814353
 20
2486.025317285078
 30
0.0
 11
979.237015814353
 21
2585.025317285078
 31
0.0
  0
LINE
  5
1A6
330
6C
100
AcDbEntity
  8
Widoczne (ISO)
100
AcDbLine
 10
979.237015814353
 20
2585.025317285078
 30
0.0
 11
973.8370158143531
 21
2585.025317285078
 31
0.0
  0
LINE
  5
1A7
330
6C
100
AcDbEntity
  8
Widoczne (ISO)
100
AcDbLine
 10
973.8370158143531
 20
2585.025317285078
 30
0.0
 11
973.8370158143531
 21
2486.025317285078
 31
0.0
  0
LINE
  5
1A8
330
6C
100
AcDbEntity
  8
Widoczne (ISO)
100
AcDbLine
 10
957.2770158143519
 20
2543.985317285077
 30
0.0
 11
957.2770158143519
 21
2565.585317285078
 31
0.0
  0
LINE
  5
1A9
330
6C
100
AcDbEntity
  8
Widoczne (ISO)
100
AcDbLine
 10
960.157015814352
 20
2543.985317285077
 30
0.0
 11
957.2770158143519
 21
2543.985317285077
 31
0.0
  0
LINE
  5
1AA
330
6C
100
AcDbEntity
  8
Widoczne (ISO)
100
AcDbLine
 10
960.157015814352
 20
2565.585317285078
 30
0.0
 11
957.2770158143519
 21
2565.585317285078
 31
0.0
  0
LINE
  5
1AB
330
6C
100
AcDbEntity
  8
Widoczne (ISO)
100
AcDbLine
 10
957.2770158143519
 20
2500.785317285079
 30
0.0
 11
957.2770158143519
 21
2522.385317285078
 31
0.0
  0
LINE
  5
1AC
330
6C
100
AcDbEntity
  8
Widoczne (ISO)
100
AcDbLine
 10
960.157015814352
 20
2500.785317285079
 30
0.0
 11
957.2770158143519
 21
2500.785317285079
 31
0.0
  0
LINE
  5
1AD
330
6C
100
AcDbEntity
  8
Widoczne (ISO)
100
AcDbLine
 10
960.157015814352
 20
2522.385317285078
 30
0.0
 11
957.2770158143519
 21
2522.385317285078
 31
0.0
  0
LINE
  5
1AE
330
6C
100
AcDbEntity
  8
Widoczne (ISO)
100
AcDbLine
 10
888.1570158143521
 20
2613.105317285078
 30
0.0
 11
866.5570158143522
 21
2613.105317285078
 31
0.0
  0
LINE
  5
1AF
330
6C
100
AcDbEntity
  8
Widoczne (ISO)
100
AcDbLine
 10
888.1570158143523
 20
2615.985317285078
 30
0.0
 11
888.1570158143523
 21
2613.105317285078
 31
0.0
  0
LINE
  5
1B0
330
6C
100
AcDbEntity
  8
Widoczne (ISO)
100
AcDbLine
 10
866.5570158143522
 20
2615.985317285078
 30
0.0
 11
866.5570158143522
 21
2613.105317285078
 31
0.0
  0
LINE
  5
1B1
330
6C
100
AcDbEntity
  8
Widoczne (ISO)
100
AcDbLine
 10
949.3570158143525
 20
2613.105317285078
 30
0.0
 11
927.7570158143523
 21
2613.105317285078
 31
0.0
  0
LINE
  5
1B2
330
6C
100
AcDbEntity
  8
Widoczne (ISO)
100
AcDbLine
 10
949.3570158143525
 20
2615.985317285078
 30
0.0
 11
949.3570158143525
 21
2613.105317285078
 31
0.0
  0
LINE
  5
1B3
330
6C
100
AcDbEntity
  8
Widoczne (ISO)
100
AcDbLine
 10
927.7570158143522
 20
2615.985317285078
 30
0.0
 11
927.7570158143522
 21
2613.105317285078
 31
0.0
  0
LINE
  5
1B4
330
6C
100
AcDbEntity
  8
Widoczne (ISO)
100
AcDbLine
 10
946.4770158143522
 20
2546.865317285079
 30
0.0
 11
946.4770158143522
 21
2562.705317285078
 31
0.0
  0
ARC
  5
1B5
330
6C
100
AcDbEntity
  8
Widoczne (ISO)
100
AcDbCircle
 10
947.557015814352
 20
2546.865317285079
 30
0.0
 40
1.08
100
AcDbArc
 50
180.0
 51
270.0
  0
ARC
  5
1B6
330
6C
100
AcDbEntity
  8
Widoczne (ISO)
100
AcDbCircle
 10
947.557015814352
 20
2562.705317285078
 30
0.0
 40
1.08
100
AcDbArc
 50
90.0
 51
180.0
  0
LINE
  5
1B7
330
6C
100
AcDbEntity
  8
Widoczne (ISO)
100
AcDbLine
 10
947.557015814352
 20
2563.785317285078
 30
0.0
 11
957.2770158143519
 21
2563.785317285078
 31
0.0
  0
LINE
  5
1B8
330
6C
100
AcDbEntity
  8
Widoczne (ISO)
100
AcDbLine
 10
947.557015814352
 20
2545.785317285079
 30
0.0
 11
957.2770158143519
 21
2545.785317285079
 31
0.0
  0
LINE
  5
1B9
330
6C
100
AcDbEntity
  8
Widoczne (ISO)
100
AcDbLine
 10
946.4770158143522
 20
2503.665317285078
 30
0.0
 11
946.4770158143522
 21
2519.505317285078
 31
0.0
  0
ARC
  5
1BA
330
6C
100
AcDbEntity
  8
Widoczne (ISO)
100
AcDbCircle
 10
947.557015814352
 20
2503.665317285078
 30
0.0
 40
1.08
100
AcDbArc
 50
180.0
 51
270.0
  0
ARC
  5
1BB
330
6C
100
AcDbEntity
  8
Widoczne (ISO)
100
AcDbCircle
 10
947.557015814352
 20
2519.505317285078
 30
0.0
 40
1.08
100
AcDbArc
 50
90.0
 51
180.0
  0
LINE
  5
1BC
330
6C
100
AcDbEntity
  8
Widoczne (ISO)
100
AcDbLine
 10
947.557015814352
 20
2520.585317285078
 30
0.0
 11
957.2770158143519
 21
2520.585317285078
 31
0.0
  0
LINE
  5
1BD
330
6C
100
AcDbEntity
  8
Widoczne (ISO)
100
AcDbLine
 10
947.557015814352
 20
2502.585317285078
 30
0.0
 11
957.2770158143519
 21
2502.585317285078
 31
0.0
  0
LINE
  5
1BE
330
6C
100
AcDbEntity
  8
Widoczne (ISO)
100
AcDbLine
 10
1008.397015814353
 20
2486.025317285078
 30
0.0
 11
976.1410158143528
 21
2486.025317285078
 31
0.0
  0
ARC
  5
1BF
330
6C
100
AcDbEntity
  8
Widoczne (ISO)
100
AcDbCircle
 10
976.1410158143528
 20
2488.329317285078
 30
0.0
 40
2.304000000000006
100
AcDbArc
 50
180.0
 51
270.0
  0
LINE
  5
1C0
330
6C
100
AcDbEntity
  8
Widoczne (ISO)
100
AcDbLine
 10
973.8370158143528
 20
2488.329317285078
 30
0.0
 11
973.8370158143528
 21
2584.161317285078
 31
0.0
  0
ARC
  5
1C1
330
6C
100
AcDbEntity
  8
Widoczne (ISO)
100
AcDbCircle
 10
976.1410158143528
 20
2584.161317285078
 30
0.0
 40
2.303999999999997
100
AcDbArc
 50
90.0
 51
180.0
  0
LINE
  5
1C2
330
6C
100
AcDbEntity
  8
Widoczne (ISO)
100
AcDbLine
 10
976.1410158143528
 20
2586.465317285078
 30
0.0
 11
1033.597015814353
 21
2586.465317285078
 31
0.0
  0
LINE
  5
1C3
330
6C
100
AcDbEntity
  8
Widoczne (ISO)
100
AcDbLine
 10
1033.597015814353
 20
2586.465317285078
 30
0.0
 11
1033.597015814353
 21
2587.905317285078
 31
0.0
  0
LINE
  5
1C4
330
6C
100
AcDbEntity
  8
Widoczne (ISO)
100
AcDbLine
 10
1033.597015814353
 20
2587.905317285078
 30
0.0
 11
976.1410158143528
 21
2587.905317285078
 31
0.0
  0
ARC
  5
1C5
330
6C
100
AcDbEntity
  8
Widoczne (ISO)
100
AcDbCircle
 10
976.1410158143528
 20
2584.161317285078
 30
0.0
 40
3.744000000000021
100
AcDbArc
 50
90.0
 51
180.0
  0
LINE
  5
1C6
330
6C
100
AcDbEntity
  8
Widoczne (ISO)
100
AcDbLine
 10
972.3970158143528
 20
2584.161317285078
 30
0.0
 11
972.3970158143528
 21
2488.329317285078
 31
0.0
  0
ARC
  5
1C7
330
6C
100
AcDbEntity
  8
Widoczne (ISO)
100
AcDbCircle
 10
976.1410158143528
 20
2488.329317285078
 30
0.0
 40
3.744000000000006
100
AcDbArc
 50
180.0
 51
270.0
  0
LINE
  5
1C8
330
6C
100
AcDbEntity
  8
Widoczne (ISO)
100
AcDbLine
 10
976.1410158143528
 20
2484.585317285078
 30
0.0
 11
1008.397015814353
 21
2484.585317285078
 31
0.0
  0
LINE
  5
1C9
330
6C
100
AcDbEntity
  8
Widoczne (ISO)
100
AcDbLine
 10
1008.397015814353
 20
2484.585317285078
 30
0.0
 11
1008.397015814353
 21
2486.025317285078
 31
0.0
  0
LINE
  5
1CA
330
6C
100
AcDbEntity
  8
Widoczne (ISO)
100
AcDbLine
 10
2837.773015814354
 20
2486.025317285074
 30
0.0
 11
2805.517015814354
 21
2486.025317285074
 31
0.0
  0
LINE
  5
1CB
330
6C
100
AcDbEntity
  8
Widoczne (ISO)
100
AcDbLine
 10
2805.517015814354
 20
2486.025317285074
 30
0.0
 11
2805.517015814354
 21
2484.585317285074
 31
0.0
  0
LINE
  5
1CC
330
6C
100
AcDbEntity
  8
Widoczne (ISO)
100
AcDbLine
 10
2805.517015814354
 20
2484.585317285074
 30
0.0
 11
2837.773015814354
 21
2484.585317285074
 31
0.0
  0
ARC
  5
1CD
330
6C
100
AcDbEntity
  8
Widoczne (ISO)
100
AcDbCircle
 10
2837.773015814354
 20
2488.329317285074
 30
0.0
 40
3.744000000000006
100
AcDbArc
 50
270.0
 51
0.0
  0
LINE
  5
1CE
330
6C
100
AcDbEntity
  8
Widoczne (ISO)
100
AcDbLine
 10
2841.517015814353
 20
2488.329317285074
 30
0.0
 11
2841.517015814353
 21
2584.161317285074
 31
0.0
  0
ARC
  5
1CF
330
6C
100
AcDbEntity
  8
Widoczne (ISO)
100
AcDbCircle
 10
2837.773015814354
 20
2584.161317285074
 30
0.0
 40
3.744000000000021
100
AcDbArc
 50
0.0
 51
90.0
  0
LINE
  5
1D0
330
6C
100
AcDbEntity
  8
Widoczne (ISO)
100
AcDbLine
 10
2837.773015814354
 20
2587.905317285074
 30
0.0
 11
2780.317015814353
 21
2587.905317285074
 31
0.0
  0
LINE
  5
1D1
330
6C
100
AcDbEntity
  8
Widoczne (ISO)
100
AcDbLine
 10
2780.317015814353
 20
2587.905317285074
 30
0.0
 11
2780.317015814353
 21
2586.465317285074
 31
0.0
  0
LINE
  5
1D2
330
6C
100
AcDbEntity
  8
Widoczne (ISO)
100
AcDbLine
 10
2780.317015814353
 20
2586.465317285074
 30
0.0
 11
2837.773015814354
 21
2586.465317285074
 31
0.0
  0
ARC
  5
1D3
330
6C
100
AcDbEntity
  8
Widoczne (ISO)
100
AcDbCircle
 10
2837.773015814354
 20
2584.161317285074
 30
0.0
 40
2.304000000000003
100
AcDbArc
 50
0.0
 51
90.0
  0
LINE
  5
1D4
330
6C
100
AcDbEntity
  8
Widoczne (ISO)
100
AcDbLine
 10
2840.077015814354
 20
2584.161317285074
 30
0.0
 11
2840.077015814353
 21
2488.329317285074
 31
0.0
  0
ARC
  5
1D5
330
6C
100
AcDbEntity
  8
Widoczne (ISO)
100
AcDbCircle
 10
2837.773015814354
 20
2488.329317285074
 30
0.0
 40
2.304000000000006
100
AcDbArc
 50
270.0
 51
0.0
  0
CIRCLE
  5
1D6
330
6C
100
AcDbEntity
  8
Widoczne (ISO)
100
AcDbCircle
 10
2520.757015814342
 20
2534.805317285075
 30
0.0
 40
16.20000000000011
  0
CIRCLE
  5
1D7
330
6C
100
AcDbEntity
  8
Widoczne (ISO)
100
AcDbCircle
 10
2520.757015814342
 20
2534.805317285075
 30
0.0
 40
18.00000000000012
  0
LINE
  5
1D8
330
6C
100
AcDbEntity
  8
Widoczne (ISO)
100
AcDbLine
 10
972.5455186303785
 20
2487.285317285076
 30
0.0
 11
972.3970158143576
 21
2487.285317285076
 31
0.0
  0
LINE
  5
1D9
330
6C
100
AcDbEntity
  8
Widoczne (ISO)
100
AcDbLine
 10
972.5008885453098
 20
2586.285317285077
 30
0.0
 11
973.0578096908502
 21
2586.285317285077
 31
0.0
  0
LINE
  5
1DA
330
6C
100
AcDbEntity
  8
Widoczne (ISO)
100
AcDbLine
 10
2841.517015814356
 20
2588.985317285072
 30
0.0
 11
2841.517015814356
 21
2588.55243910567
 31
0.0
  0
LINE
  5
1DB
330
6C
100
AcDbEntity
  8
Widoczne (ISO)
100
AcDbLine
 10
972.3970158143576
 20
2588.985317285076
 30
0.0
 11
972.3970158143576
 21
2588.552439105678
 31
0.0
  0
LINE
  5
1DC
330
6C
100
AcDbEntity
  8
Widoczne (ISO)
100
AcDbLine
 10
2841.517015814356
 20
2588.985317285072
 30
0.0
 11
2840.81491468757
 21
2588.985317285072
 31
0.0
  0
LINE
  5
1DD
330
6C
100
AcDbEntity
  8
Widoczne (ISO)
100
AcDbLine
 10
2779.957015814356
 20
2588.985317285072
 30
0.0
 11
2678.257022474809
 21
2588.985317285073
 31
0.0
  0
LINE
  5
1DE
330
6C
100
AcDbEntity
  8
Widoczne (ISO)
100
AcDbLine
 10
2647.657022474809
 20
2588.985317285073
 30
0.0
 11
2642.732034957081
 21
2588.985317285073
 31
0.0
  0
LINE
  5
1DF
330
6C
100
AcDbEntity
  8
Widoczne (ISO)
100
AcDbLine
 10
2638.772034957082
 20
2588.985317285073
 30
0.0
 11
2540.825152782338
 21
2588.985317285073
 31
0.0
  0
LINE
  5
1E0
330
6C
100
AcDbEntity
  8
Widoczne (ISO)
100
AcDbLine
 10
2526.425152782338
 20
2588.985317285073
 30
0.0
 11
2518.957015814341
 21
2588.985317285073
 31
0.0
  0
LINE
  5
1E1
330
6C
100
AcDbEntity
  8
Widoczne (ISO)
100
AcDbLine
 10
2446.957015814341
 20
2588.985317285073
 30
0.0
 11
2439.500182431062
 21
2588.985317285073
 31
0.0
  0
LINE
  5
1E2
330
6C
100
AcDbEntity
  8
Widoczne (ISO)
100
AcDbLine
 10
2425.100182431063
 20
2588.985317285073
 30
0.0
 11
1033.957015814357
 21
2588.985317285076
 31
0.0
  0
LINE
  5
1E3
330
6C
100
AcDbEntity
  8
Widoczne (ISO)
100
AcDbLine
 10
973.0991169411336
 20
2588.985317285076
 30
0.0
 11
972.3970158143576
 21
2588.985317285076
 31
0.0
  0
LINE
  5
1E4
330
6C
100
AcDbEntity
  8
Widoczne (ISO)
100
AcDbLine
 10
2693.685140110126
 20
2441.745317285072
 30
0.0
 11
2581.073873238824
 21
2441.745317285073
 31
0.0
  0
LINE
  5
1E5
330
6C
100
AcDbEntity
  8
Widoczne (ISO)
100
AcDbLine
 10
2737.573345163469
 20
2441.745317285072
 30
0.0
 11
2693.685140110124
 21
2441.745317285072
 31
0.0
  0
ARC
  5
1E6
330
6C
100
AcDbEntity
  8
Widoczne (ISO)
100
AcDbCircle
 10
2737.573345163469
 20
2443.545317285073
 30
0.0
 40
1.800000000000024
100
AcDbArc
 50
270.0
 51
356.1000000000039
  0
LINE
  5
1E7
330
6C
100
AcDbEntity
  8
Widoczne (ISO)
100
AcDbLine
 10
2739.369176865372
 20
2443.422889761875
 30
0.0
 11
2742.077180300159
 21
2483.145317285073
 31
0.0
  0
LINE
  5
1E8
330
6C
100
AcDbEntity
  8
Widoczne (ISO)
100
AcDbLine
 10
2692.941719270619
 20
2632.545317285074
 30
0.0
 11
2737.573345163469
 21
2632.545317285073
 31
0.0
  0
LINE
  5
1E9
330
6C
100
AcDbEntity
  8
Widoczne (ISO)
100
AcDbLine
 10
2581.036537909835
 20
2632.545317285074
 30
0.0
 11
2692.941719270618
 21
2632.545317285073
 31
0.0
  0
ARC
  5
1EA
330
6C
100
AcDbEntity
  8
Widoczne (ISO)
100
AcDbCircle
 10
2737.573345163469
 20
2630.745317285073
 30
0.0
 40
1.8
100
AcDbArc
 50
3.900000000006082
 51
90.0
  0
LINE
  5
1EB
330
6C
100
AcDbEntity
  8
Widoczne (ISO)
100
AcDbLine
 10
2694.752179410789
 20
2591.145317285074
 30
0.0
 11
2742.077180300161
 21
2591.145317285073
 31
0.0
  0
LINE
  5
1EC
330
6C
100
AcDbEntity
  8
Widoczne (ISO)
100
AcDbLine
 10
2581.035664853507
 20
2591.145317285074
 30
0.0
 11
2694.75217941079
 21
2591.145317285074
 31
0.0
  0
LINE
  5
1ED
330
6C
100
AcDbEntity
  8
Widoczne (ISO)
100
AcDbLine
 10
2739.369176865373
 20
2630.867744808271
 30
0.0
 11
2742.077180300161
 21
2591.145317285074
 31
0.0
  0
LINE
  5
1EE
330
6C
100
AcDbEntity
  8
Widoczne (ISO)
100
AcDbLine
 10
2459.286548625892
 20
2441.745317285074
 30
0.0
 11
2394.760850951048
 21
2441.745317285074
 31
0.0
  0
SPLINE
  5
1EF
330
6C
100
AcDbEntity
  8
Widoczne (ISO)
100
AcDbSpline
210
0.0
220
0.0
230
1.0
 70
     8
 71
     3
 72
    14
 73
    10
 74
     0
 42
0.0000000001
 43
0.0000000001
 40
0.4450174960849384
 40
0.4450174960849384
 40
0.4450174960849384
 40
0.4450174960849384
 40
0.4822012682666344
 40
0.4822012682666344
 40
0.5193226583162096
 40
0.5193226583162096
 40
0.5563695428457815
 40
0.5563695428457815
 40
0.5867358690286423
 40
0.5867358690286423
 40
0.5867358690286423
 40
0.5867358690286423
 10
2581.073873238839
 20
2441.745317285073
 30
0.0
 10
2581.073916347549
 20
2441.745317285073
 30
0.0
 10
2581.073967088682
 20
2441.797425884626
 30
0.0
 10
2581.074046698453
 20
2441.967761882386
 30
0.0
 10
2581.074089670956
 20
2442.116000377609
 30
0.0
 10
2581.074150532319
 20
2442.430359936897
 30
0.0
 10
2581.074179214631
 20
2442.651977182183
 30
0.0
 10
2581.074209171417
 20
2443.025563925487
 30
0.0
 10
2581.074218837614
 20
2443.231544038408
 30
0.0
 10
2581.074221366316
 20
2443.422889761876
 30
0.0
  0
LINE
  5
1F0
330
6C
100
AcDbEntity
  8
Widoczne (ISO)
100
AcDbLine
 10
2581.073873238839
 20
2441.745317285073
 30
0.0
 11
2459.286548625892
 21
2441.745317285074
 31
0.0
  0
ARC
  5
1F1
330
6C
100
AcDbEntity
  8
Widoczne (ISO)
100
AcDbCircle
 10
2394.760850951048
 20
2443.545317285073
 30
0.0
 40
1.800000000000025
100
AcDbArc
 50
183.8999999999959
 51
270.0
  0
SPLINE
  5
1F2
330
6C
100
AcDbEntity
  8
Widoczne (ISO)
100
AcDbSpline
210
0.0
220
0.0
230
1.0
 70
    12
 71
     2
 72
     6
 73
     3
 74
     0
 42
0.0000000001
 43
0.0000000001
 40
122.9613098086239
 40
122.9613098086239
 40
122.9613098086239
 40
125.0949698528305
 40
125.0949698528305
 40
125.0949698528305
 10
2581.074221366316
 20
2443.422889761876
 30
0.0
 41
1.035786940672541
 10
2581.074482822629
 20
2463.207171828639
 30
0.0
 41
1.035653113966274
 10
2581.074746299237
 20
2483.145317284983
 30
0.0
 41
1.035503867345319
  0
LINE
  5
1F3
330
6C
100
AcDbEntity
  8
Widoczne (ISO)
100
AcDbLine
 10
2392.965019249144
 20
2443.422889761876
 30
0.0
 11
2390.257015814358
 21
2483.145317285074
 31
0.0
  0
SPLINE
  5
1F4
330
6C
100
AcDbEntity
  8
Widoczne (ISO)
100
AcDbSpline
210
0.0
220
0.0
230
1.0
 70
     8
 71
     3
 72
    14
 73
    10
 74
     0
 42
0.0000000001
 43
0.0000000001
 40
0.5999731993833884
 40
0.5999731993833884
 40
0.5999731993833884
 40
0.5999731993833884
 40
0.6303395809138004
 40
0.6303395809138004
 40
0.6673864324337897
 40
0.6673864324337897
 40
0.7045076817363956
 40
0.7045076817363956
 40
0.7416912229450925
 40
0.7416912229450925
 40
0.7416912229450925
 40
0.7416912229450925
 10
2581.036183064226
 20
2630.867744808271
 30
0.0
 10
2581.03618559292
 20
2631.05909088018
 30
0.0
 10
2581.036195259103
 20
2631.265071417802
 30
0.0
 10
2581.036225215829
 20
2631.638658434422
 30
0.0
 10
2581.036253898047
 20
2631.860275723694
 30
0.0
 10
2581.036314759181
 20
2632.17463499417
 30
0.0
 10
2581.036357731474
 20
2632.322873289731
 30
0.0
 10
2581.036437340815
 20
2632.493208833931
 30
0.0
 10
2581.036488081626
 20
2632.545317285074
 30
0.0
 10
2581.036531190068
 20
2632.545317285074
 30
0.0
  0
LINE
  5
1F5
330
6C
100
AcDbEntity
  8
Widoczne (ISO)
100
AcDbLine
 10
2457.759122496825
 20
2632.545317285074
 30
0.0
 11
2581.036531190068
 21
2632.545317285074
 31
0.0
  0
LINE
  5
1F6
330
6C
100
AcDbEntity
  8
Widoczne (ISO)
100
AcDbLine
 10
2394.760850951047
 20
2632.545317285074
 30
0.0
 11
2457.759122496825
 21
2632.545317285074
 31
0.0
  0
ARC
  5
1F7
330
6C
100
AcDbEntity
  8
Widoczne (ISO)
100
AcDbCircle
 10
2394.760850951047
 20
2630.745317285074
 30
0.0
 40
1.8
100
AcDbArc
 50
90.00000000001016
 51
176.100000000004
  0
LINE
  5
1F8
330
6C
100
AcDbEntity
  8
Widoczne (ISO)
100
AcDbLine
 10
2581.036537909844
 20
2632.545317285074
 30
0.0
 11
2581.036531190068
 21
2632.545317285074
 31
0.0
  0
SPLINE
  5
1F9
330
6C
100
AcDbEntity
  8
Widoczne (ISO)
100
AcDbSpline
210
0.0
220
0.0
230
1.0
 70
    12
 71
     2
 72
     6
 73
     3
 74
     0
 42
0.0000000001
 43
0.0000000001
 40
83.7890791659182
 40
83.7890791659182
 40
83.7890791659182
 40
85.92271378646316
 40
85.92271378646316
 40
85.92271378646316
 10
2581.035658133741
 20
2591.14531728517
 30
0.0
 41
1.035515924027254
 10
2581.035921609292
 20
2611.083474606294
 30
0.0
 41
1.035665244993784
 10
2581.036183064226
 20
2630.867744808271
 30
0.0
 41
1.035799140978274
  0
LINE
  5
1FA
330
6C
100
AcDbEntity
  8
Widoczne (ISO)
100
AcDbLine
 10
2581.035664853516
 20
2591.145317285074
 30
0.0
 11
2581.035658133742
 21
2591.145317285074
 31
0.0
  0
LINE
  5
1FB
330
6C
100
AcDbEntity
  8
Widoczne (ISO)
100
AcDbLine
 10
2456.500818459322
 20
2591.145317285074
 30
0.0
 11
2581.035658133742
 21
2591.145317285074
 31
0.0
  0
LINE
  5
1FC
330
6C
100
AcDbEntity
  8
Widoczne (ISO)
100
AcDbLine
 10
2390.257015814356
 20
2591.145317285074
 30
0.0
 11
2456.500818459323
 21
2591.145317285074
 31
0.0
  0
SPLINE
  5
1FD
330
6C
100
AcDbEntity
  8
Widoczne (ISO)
100
AcDbSpline
210
0.0
220
0.0
230
1.0
 70
     8
 71
     3
 72
     8
 73
     4
 74
     0
 42
0.0000000001
 43
0.0000000001
 40
97.59319352315642
 40
97.59319352315642
 40
97.59319352315642
 40
97.59319352315642
 40
99.60963639162478
 40
99.60963639162478
 40
99.60963639162478
 40
99.60963639162478
 10
2456.500818459325
 20
2591.145317285074
 30
0.0
 10
2456.753053641354
 20
2604.391072883152
 30
0.0
 10
2457.005228708556
 20
2617.632114202079
 30
0.0
 10
2457.257332035339
 20
2630.867744808271
 30
0.0
  0
LINE
  5
1FE
330
6C
100
AcDbEntity
  8
Widoczne (ISO)
100
AcDbLine
 10
2392.965019249142
 20
2630.867744808271
 30
0.0
 11
2390.257015814356
 21
2591.145317285074
 31
0.0
  0
LINE
  5
1FF
330
6C
100
AcDbEntity
  8
Widoczne (ISO)
100
AcDbLine
 10
2446.957015814355
 20
2586.465317285075
 30
0.0
 11
2446.957015814355
 21
2589.345317285074
 31
0.0
  0
LINE
  5
200
330
6C
100
AcDbEntity
  8
Widoczne (ISO)
100
AcDbLine
 10
2446.957015814355
 20
2590.785317285075
 30
0.0
 11
2446.957015814355
 21
2591.145317285074
 31
0.0
  0
LINE
  5
201
330
6C
100
AcDbEntity
  8
Widoczne (ISO)
100
AcDbLine
 10
2518.957015814355
 20
2586.465317285074
 30
0.0
 11
2518.957015814355
 21
2589.345317285074
 31
0.0
  0
LINE
  5
202
330
6C
100
AcDbEntity
  8
Widoczne (ISO)
100
AcDbLine
 10
2518.957015814355
 20
2590.785317285074
 30
0.0
 11
2518.957015814355
 21
2591.145317285074
 31
0.0
  0
LINE
  5
203
330
6C
100
AcDbEntity
  8
Widoczne (ISO)
100
AcDbLine
 10
2667.445718890116
 20
2591.145317285074
 30
0.0
 11
2667.445718890116
 21
2590.785317285074
 31
0.0
  0
LINE
  5
204
330
6C
100
AcDbEntity
  8
Widoczne (ISO)
100
AcDbLine
 10
2667.445718890116
 20
2589.345317285074
 30
0.0
 11
2667.445718890116
 21
2586.465317285074
 31
0.0
  0
LINE
  5
205
330
6C
100
AcDbEntity
  8
Widoczne (ISO)
100
AcDbLine
 10
2658.445718890116
 20
2591.145317285074
 30
0.0
 11
2658.445718890116
 21
2590.785317285074
 31
0.0
  0
LINE
  5
206
330
6C
100
AcDbEntity
  8
Widoczne (ISO)
100
AcDbLine
 10
2658.445718890116
 20
2589.345317285074
 30
0.0
 11
2658.445718890116
 21
2586.465317285074
 31
0.0
  0
LINE
  5
207
330
6C
100
AcDbEntity
  8
Widoczne (ISO)
100
AcDbLine
 10
2671.954631559147
 20
2591.145317285074
 30
0.0
 11
2671.954631559147
 21
2590.785317285074
 31
0.0
  0
LINE
  5
208
330
6C
100
AcDbEntity
  8
Widoczne (ISO)
100
AcDbLine
 10
2671.954631559147
 20
2589.345317285074
 30
0.0
 11
2671.954631559147
 21
2586.465317285074
 31
0.0
  0
LINE
  5
209
330
6C
100
AcDbEntity
  8
Widoczne (ISO)
100
AcDbLine
 10
2653.950240323994
 20
2591.145317285074
 30
0.0
 11
2653.950240323994
 21
2590.785317285074
 31
0.0
  0
LINE
  5
20A
330
6C
100
AcDbEntity
  8
Widoczne (ISO)
100
AcDbLine
 10
2653.950240323994
 20
2589.345317285074
 30
0.0
 11
2653.950240323994
 21
2586.465317285074
 31
0.0
  0
LINE
  5
20B
330
6C
100
AcDbEntity
  8
Widoczne (ISO)
100
AcDbLine
 10
2678.257022474809
 20
2591.145317285073
 30
0.0
 11
2678.257022474809
 21
2590.785317285074
 31
0.0
  0
LINE
  5
20C
330
6C
100
AcDbEntity
  8
Widoczne (ISO)
100
AcDbLine
 10
2678.257022474809
 20
2589.345317285074
 30
0.0
 11
2678.257022474809
 21
2586.465317285074
 31
0.0
  0
LINE
  5
20D
330
6C
100
AcDbEntity
  8
Widoczne (ISO)
100
AcDbLine
 10
2647.657022474809
 20
2591.145317285074
 30
0.0
 11
2647.657022474809
 21
2590.785317285074
 31
0.0
  0
LINE
  5
20E
330
6C
100
AcDbEntity
  8
Widoczne (ISO)
100
AcDbLine
 10
2647.657022474809
 20
2589.345317285074
 30
0.0
 11
2647.657022474809
 21
2586.465317285074
 31
0.0
  0
LINE
  5
20F
330
6C
100
AcDbEntity
  8
Widoczne (ISO)
100
AcDbLine
 10
2642.732034957081
 20
2591.145317285073
 30
0.0
 11
2642.732034957081
 21
2590.785317285073
 31
0.0
  0
LINE
  5
210
330
6C
100
AcDbEntity
  8
Widoczne (ISO)
100
AcDbLine
 10
2642.732034957081
 20
2589.345317285074
 30
0.0
 11
2642.732034957081
 21
2586.465317285073
 31
0.0
  0
LINE
  5
211
330
6C
100
AcDbEntity
  8
Widoczne (ISO)
100
AcDbLine
 10
2638.772034957082
 20
2591.145317285073
 30
0.0
 11
2638.772034957082
 21
2590.785317285073
 31
0.0
  0
LINE
  5
212
330
6C
100
AcDbEntity
  8
Widoczne (ISO)
100
AcDbLine
 10
2638.772034957082
 20
2589.345317285074
 30
0.0
 11
2638.772034957082
 21
2586.465317285073
 31
0.0
  0
LINE
  5
213
330
6C
100
AcDbEntity
  8
Widoczne (ISO)
100
AcDbLine
 10
2408.257015814357
 20
2697.345317285077
 30
0.0
 11
2557.657015814353
 21
2697.345317285077
 31
0.0
  0
LINE
  5
214
330
6C
100
AcDbEntity
  8
Widoczne (ISO)
100
AcDbLine
 10
2563.057015814353
 20
2691.945317285077
 30
0.0
 11
2402.857015814356
 21
2691.945317285077
 31
0.0
  0
LINE
  5
215
330
6C
100
AcDbEntity
  8
Widoczne (ISO)
100
AcDbLine
 10
2557.657015814353
 20
2697.345317285077
 30
0.0
 11
2563.057015814353
 21
2691.945317285077
 31
0.0
  0
LINE
  5
216
330
6C
100
AcDbEntity
  8
Widoczne (ISO)
100
AcDbLine
 10
2408.257015814357
 20
2697.345317285077
 30
0.0
 11
2402.857015814356
 21
2691.945317285077
 31
0.0
  0
LINE
  5
217
330
6C
100
AcDbEntity
  8
Widoczne (ISO)
100
AcDbLine
 10
2563.057015814353
 20
2691.945317285077
 30
0.0
 11
2563.057015814353
 21
2632.545317285074
 31
0.0
  0
LINE
  5
218
330
6C
100
AcDbEntity
  8
Widoczne (ISO)
100
AcDbLine
 10
2402.857015814356
 20
2691.945317285077
 30
0.0
 11
2402.857015814356
 21
2632.545317285074
 31
0.0
  0
LINE
  5
219
330
6C
100
AcDbEntity
  8
Widoczne (ISO)
100
AcDbLine
 10
2557.657015814355
 20
2382.345317285073
 30
0.0
 11
2408.257015814354
 21
2382.345317285074
 31
0.0
  0
LINE
  5
21A
330
6C
100
AcDbEntity
  8
Widoczne (ISO)
100
AcDbLine
 10
2402.857015814353
 20
2387.745317285073
 30
0.0
 11
2563.057015814354
 21
2387.745317285073
 31
0.0
  0
LINE
  5
21B
330
6C
100
AcDbEntity
  8
Widoczne (ISO)
100
AcDbLine
 10
2408.257015814354
 20
2382.345317285074
 30
0.0
 11
2402.857015814353
 21
2387.745317285073
 31
0.0
  0
LINE
  5
21C
330
6C
100
AcDbEntity
  8
Widoczne (ISO)
100
AcDbLine
 10
2557.657015814355
 20
2382.345317285073
 30
0.0
 11
2563.057015814355
 21
2387.745317285073
 31
0.0
  0
LINE
  5
21D
330
6C
100
AcDbEntity
  8
Widoczne (ISO)
100
AcDbLine
 10
2402.857015814353
 20
2387.745317285073
 30
0.0
 11
2402.857015814353
 21
2441.745317285074
 31
0.0
  0
LINE
  5
21E
330
6C
100
AcDbEntity
  8
Widoczne (ISO)
100
AcDbLine
 10
2563.057015814354
 20
2387.745317285073
 30
0.0
 11
2563.057015814354
 21
2441.745317285074
 31
0.0
  0
LINE
  5
21F
330
6C
100
AcDbEntity
  8
Widoczne (ISO)
100
AcDbLine
 10
2022.46851921698
 20
2742.027655881011
 30
0.0
 11
2402.857015814365
 21
2686.446489970844
 31
0.0
  0
LINE
  5
220
330
6C
100
AcDbEntity
  8
Widoczne (ISO)
100
AcDbLine
 10
2015.962348316289
 20
2697.500476089214
 30
0.0
 11
2402.857015814365
 21
2640.968649032598
 31
0.0
  0
LINE
  5
221
330
6C
100
AcDbEntity
  8
Widoczne (ISO)
100
AcDbLine
 10
2015.962348316272
 20
2382.190158480938
 30
0.0
 11
2402.857015814377
 21
2438.721985537555
 31
0.0
  0
LINE
  5
222
330
6C
100
AcDbEntity
  8
Widoczne (ISO)
100
AcDbLine
 10
2022.468519216964
 20
2337.662978689141
 30
0.0
 11
2402.857015814377
 21
2393.244144599309
 31
0.0
  0
SPLINE
  5
223
330
6C
100
AcDbEntity
  8
Widoczne (ISO)
100
AcDbSpline
210
0.0
220
0.0
230
1.0
 70
     8
 71
     3
 72
    26
 73
    22
 74
     0
 42
0.0000000001
 43
0.0000000001
 40
0.1554862163720335
 40
0.1554862163720335
 40
0.1554862163720335
 40
0.1554862163720335
 40
0.2293716900323587
 40
0.2293716900323587
 40
0.3056618093556158
 40
0.3056618093556158
 40
0.3819519286788729
 40
0.3819519286788729
 40
0.4582420480021301
 40
0.4582420480021301
 40
0.5347828333566809
 40
0.5347828333566809
 40
0.6113236187112318
 40
0.6113236187112318
 40
0.6860827487564503
 40
0.6860827487564503
 40
0.7608418788016689
 40
0.7608418788016689
 40
0.8356163316562135
 40
0.8356163316562135
 40
0.8815599417331123
 40
0.8815599417331123
 40
0.8815599417331123
 40
0.8815599417331123
 10
2003.771723379951
 20
2696.459973042587
 30
0.0
 10
2003.351659166999
 20
2696.442539650879
 30
0.0
 10
2002.933544704291
 20
2696.421721947042
 30
0.0
 10
2002.214555663039
 20
2696.390578154443
 30
0.0
 10
2001.918050655132
 20
2696.381289156418
 30
0.0
 10
2001.520913248917
 20
2696.381289156418
 30
0.0
 10
2001.394978043526
 20
2696.390578154443
 30
0.0
 10
2001.351301787892
 20
2696.422220628513
 30
0.0
 10
2001.433366238115
 20
2696.443900519951
 30
0.0
 10
2001.748217836471
 20
2696.479486089677
 30
0.0
 10
2002.002483774713
 20
2696.495665841712
 30
0.0
 10
2002.6611074747
 20
2696.504453820779
 30
0.0
 10
2003.065519235256
 20
2696.496332749727
 30
0.0
 10
2003.88744626198
 20
2696.455943236721
 30
0.0
 10
2004.357571486815
 20
2696.421601529026
 30
0.0
 10
2005.305413643651
 20
2696.335096200122
 30
0.0
 10
2005.78319314229
 20
2696.283625002402
 30
0.0
 10
2006.622349036966
 20
2696.192377102808
 30
0.0
 10
2007.040043410847
 20
2696.146594802131
 30
0.0
 10
2007.608431572341
 20
2696.095327347525
 30
0.0
 10
2007.800007285206
 20
2696.081366182947
 30
0.0
 10
2007.960725188667
 20
2696.073500849132
 30
0.0
  0
ELLIPSE
  5
224
330
6C
100
AcDbEntity
  8
Widoczne (ISO)
100
AcDbEllipse
 10
2019.215433766633
 20
2719.764065985114
 30
0.0
 11
-3.513332286373227
 21
-24.04467708757045
 31
0.0
210
0.0
220
0.0
230
1.0
 40
0.4300904714619517
 41
2.754276052701175
 42
6.67050190806829
  0
ELLIPSE
  5
225
330
6C
100
AcDbEntity
  8
Widoczne (ISO)
100
AcDbEllipse
 10
2019.215433766633
 20
2719.764065985114
 30
0.0
 11
-3.253085450345568
 21
-22.26358989589856
 31
0.0
210
0.0
220
0.0
230
1.0
 40
0.4300904714619517
 41
3.141592653589797
 42
6.283185307179588
  0
LINE
  5
226
330
6C
100
AcDbEntity
  8
Widoczne (ISO)
100
AcDbLine
 10
2016.136182688117
 20
2695.677302897212
 30
0.0
 11
2007.961415642048
 21
2696.073259458676
 31
0.0
  0
LINE
  5
227
330
6C
100
AcDbEntity
  8
Widoczne (ISO)
100
AcDbLine
 10
2001.522193596698
 20
2696.385152409902
 30
0.0
 11
1970.838863055596
 21
2697.871343513192
 31
0.0
  0
LINE
  5
228
330
6C
100
AcDbEntity
  8
Widoczne (ISO)
100
AcDbLine
 10
2023.156741191395
 20
2743.724868121953
 30
0.0
 11
1979.125427068738
 21
2754.583245383189
 31
0.0
  0
SPLINE
  5
229
330
6C
100
AcDbEntity
  8
Widoczne (ISO)
100
AcDbSpline
210
0.0
220
0.0
230
1.0
 70
     8
 71
     3
 72
    28
 73
    24
 74
     0
 42
0.0000000001
 43
0.0000000001
 40
4.733457909815606
 40
4.733457909815606
 40
4.733457909815606
 40
4.733457909815606
 40
4.948234933285696
 40
4.948234933285696
 40
5.189120929812565
 40
5.189120929812565
 40
5.517762300591222
 40
5.517762300591222
 40
5.873800628624288
 40
5.873800628624288
 40
6.215996895473628
 40
6.215996895473628
 40
6.552256412044061
 40
6.552256412044061
 40
6.889204486935298
 40
6.889204486935298
 40
7.233668099554641
 40
7.233668099554641
 40
7.591313647573953
 40
7.591313647573953
 40
7.889132138623081
 40
7.889132138623081
 40
7.958434560076813
 40
7.958434560076813
 40
7.958434560076813
 40
7.958434560076813
 10
1970.838863055595
 20
2697.871343513192
 30
0.0
 10
1969.470090781231
 20
2697.937641960614
 30
0.0
 10
1968.121397820518
 20
2698.361754542387
 30
0.0
 10
1965.648920103079
 20
2699.814385190164
 30
0.0
 10
1964.564538882104
 20
2700.88207283322
 30
0.0
 10
1962.439084583929
 20
2703.799355109982
 30
0.0
 10
1961.532627983878
 20
2705.807287620257
 30
0.0
 10
1960.113831874068
 20
2710.508635029086
 30
0.0
 10
1959.649132388074
 20
2713.253747457929
 30
0.0
 10
1959.23993126255
 20
2718.998478222965
 30
0.0
 10
1959.278778193782
 20
2721.981891592575
 30
0.0
 10
1959.810972895644
 20
2727.949689579623
 30
0.0
 10
1960.296587792627
 20
2730.931361839661
 30
0.0
 10
1961.668201098808
 20
2736.663693608797
 30
0.0
 10
1962.554036853526
 20
2739.41229761594
 30
0.0
 10
1964.688248557694
 20
2744.471553797117
 30
0.0
 10
1965.94026166587
 20
2746.770581241009
 30
0.0
 10
1968.834561281465
 20
2750.72940984166
 30
0.0
 10
1970.485524985704
 20
2752.381889594675
 30
0.0
 10
1974.04411700565
 20
2754.420140386813
 30
0.0
 10
1975.921184623783
 20
2754.950187047606
 30
0.0
 10
1978.257430905595
 20
2754.760618378645
 30
0.0
 10
1978.696107254799
 20
2754.689118137576
 30
0.0
 10
1979.125427068738
 20
2754.583245383189
 30
0.0
  0
SPLINE
  5
22A
330
6C
100
AcDbEntity
  8
Widoczne (ISO)
100
AcDbSpline
210
0.0
220
0.0
230
1.0
 70
     8
 71
     3
 72
    18
 73
    14
 74
     0
 42
0.0000000001
 43
0.0000000001
 40
0.0
 40
0.0
 40
0.0
 40
0.0
 40
0.0765407853545508
 40
0.0765407853545508
 40
0.1530815707091016
 40
0.1530815707091016
 40
0.2293716900323587
 40
0.2293716900323587
 40
0.3056618093556158
 40
0.3056618093556158
 40
0.3819519286788729
 40
0.3819519286788729
 40
0.4558374023390435
 40
0.4558374023390435
 40
0.4558374023390435
 40
0.4558374023390435
 10
2003.481322112348
 20
2383.214734383374
 30
0.0
 10
2003.065519235239
 20
2383.194301820426
 30
0.0
 10
2002.661107474684
 20
2383.186180749373
 30
0.0
 10
2002.002483774695
 20
2383.194968728441
 30
0.0
 10
2001.748217836455
 20
2383.211148480475
 30
0.0
 10
2001.433366238098
 20
2383.246734050201
 30
0.0
 10
2001.351301787875
 20
2383.268413941639
 30
0.0
 10
2001.394978043509
 20
2383.300056415711
 30
0.0
 10
2001.520913248899
 20
2383.309345413735
 30
0.0
 10
2001.918050655115
 20
2383.309345413735
 30
0.0
 10
2002.214555663021
 20
2383.300056415711
 30
0.0
 10
2002.933544704273
 20
2383.268912623111
 30
0.0
 10
2003.35165916698
 20
2383.248094919274
 30
0.0
 10
2003.77172337993
 20
2383.230661527566
 30
0.0
  0
SPLINE
  5
22B
330
6C
100
AcDbEntity
  8
Widoczne (ISO)
100
AcDbSpline
210
0.0
220
0.0
230
1.0
 70
     8
 71
     3
 72
    14
 73
    10
 74
     0
 42
0.0000000001
 43
0.0000000001
 40
0.9392216272884072
 40
0.9392216272884072
 40
0.9392216272884072
 40
0.9392216272884072
 40
0.9851652373653026
 40
0.9851652373653026
 40
1.059939690219847
 40
1.059939690219847
 40
1.134698820265064
 40
1.134698820265064
 40
1.209457950310284
 40
1.209457950310284
 40
1.209457950310284
 40
1.209457950310284
 10
2007.96072518865
 20
2383.617133721021
 30
0.0
 10
2007.800007285189
 20
2383.609268387205
 30
0.0
 10
2007.608431572324
 20
2383.595307222627
 30
0.0
 10
2007.04004341083
 20
2383.544039768022
 30
0.0
 10
2006.622349036948
 20
2383.498257467345
 30
0.0
 10
2005.783193142274
 20
2383.40700956775
 30
0.0
 10
2005.305413643634
 20
2383.355538370032
 30
0.0
 10
2004.357571486798
 20
2383.269033041126
 30
0.0
 10
2003.887446261964
 20
2383.234691333431
 30
0.0
 10
2003.481322112348
 20
2383.214734383374
 30
0.0
  0
ELLIPSE
  5
22C
330
6C
100
AcDbEntity
  8
Widoczne (ISO)
100
AcDbEllipse
 10
2019.215433766617
 20
2359.926568585039
 30
0.0
 11
3.513332286373236
 21
-24.04467708757044
 31
0.0
210
0.0
220
0.0
230
0.9999999999999998
 40
0.4300904714619504
 41
2.754276052701144
 42
6.670501908068247
  0
ELLIPSE
  5
22D
330
6C
100
AcDbEntity
  8
Widoczne (ISO)
100
AcDbEllipse
 10
2019.215433766617
 20
2359.926568585039
 30
0.0
 11
3.253085450345447
 21
-22.26358989589857
 31
0.0
210
0.0
220
0.0
230
1.0
 40
0.4300904714619506
 41
3.141592653589924
 42
6.283185307179717
  0
LINE
  5
22E
330
6C
100
AcDbEntity
  8
Widoczne (ISO)
100
AcDbLine
 10
2023.156741191378
 20
2335.9657664482
 30
0.0
 11
1979.125427068719
 21
2325.107389186964
 31
0.0
  0
LINE
  5
22F
330
6C
100
AcDbEntity
  8
Widoczne (ISO)
100
AcDbLine
 10
2016.1361826881
 20
2384.013331672941
 30
0.0
 11
2007.96141564203
 21
2383.617375111477
 31
0.0
  0
LINE
  5
230
330
6C
100
AcDbEntity
  8
Widoczne (ISO)
100
AcDbLine
 10
2001.52219359668
 20
2383.305482160251
 30
0.0
 11
1970.838863055577
 21
2381.819291056961
 31
0.0
  0
SPLINE
  5
231
330
6C
100
AcDbEntity
  8
Widoczne (ISO)
100
AcDbSpline
210
0.0
220
0.0
230
1.0
 70
     8
 71
     3
 72
    28
 73
    24
 74
     0
 42
0.0000000001
 43
0.0000000001
 40
1.466343400692568
 40
1.466343400692568
 40
1.466343400692568
 40
1.466343400692568
 40
1.681120424162651
 40
1.681120424162651
 40
1.922006420689515
 40
1.922006420689515
 40
2.250647791468173
 40
2.250647791468173
 40
2.606686119501241
 40
2.606686119501241
 40
2.948882386350579
 40
2.948882386350579
 40
3.285141902921013
 40
3.285141902921013
 40
3.622089977812251
 40
3.622089977812251
 40
3.966553590431593
 40
3.966553590431593
 40
4.324199138450905
 40
4.324199138450905
 40
4.622017629500039
 40
4.622017629500039
 40
4.691320050953772
 40
4.691320050953772
 40
4.691320050953772
 40
4.691320050953772
 10
1979.125427068719
 20
2325.107389186964
 30
0.0
 10
1977.794910330338
 20
2324.779276047813
 30
0.0
 10
1976.381253909995
 20
2324.799762861132
 30
0.0
 10
1973.59651093976
 20
2325.48422502358
 30
0.0
 10
1972.251973165285
 20
2326.197006693201
 30
0.0
 10
1969.380672103568
 20
2328.384178855816
 30
0.0
 10
1967.937592887027
 20
2330.048804612069
 30
0.0
 10
1965.23294086296
 20
2334.147646800838
 30
0.0
 10
1964.00222441142
 20
2336.645030406771
 30
0.0
 10
1961.966420625718
 20
2342.032504775155
 30
0.0
 10
1961.1500146638
 20
2344.902303674622
 30
0.0
 10
1959.952424062823
 20
2350.772876114116
 30
0.0
 10
1959.564605916434
 20
2353.768838126523
 30
0.0
 10
1959.238712532268
 20
2359.653967188429
 30
0.0
 10
1959.301069570467
 20
2362.541118132215
 30
0.0
 10
1959.898475798842
 20
2367.999509699636
 30
0.0
 10
1960.440336211157
 20
2370.560652277545
 30
0.0
 10
1962.080912560873
 20
2375.182102633755
 30
0.0
 10
1963.190037757536
 20
2377.237877861003
 30
0.0
 10
1966.016659093819
 20
2380.209115865159
 30
0.0
 10
1967.663591362239
 20
2381.254078261088
 30
0.0
 10
1969.956404957247
 20
2381.740893203415
 30
0.0
 10
1970.397199270972
 20
2381.797898438371
 30
0.0
 10
1970.838863055577
 20
2381.819291056961
 30
0.0
  0
ELLIPSE
  5
232
330
6C
100
AcDbEntity
  8
Widoczne (ISO)
100
AcDbEllipse
 10
2448.209499228948
 20
2658.645317285077
 30
0.0
 11
0.0000000000003867
 21
14.39999999999999
 31
0.0
210
0.0
220
0.0
230
0.9999999999999998
 40
0.9010083687611246
 41
3.14159265358983
 42
6.283185307179625
  0
SPLINE
  5
233
330
6C
100
AcDbEntity
  8
Widoczne (ISO)
100
AcDbSpline
210
0.0
220
0.0
230
1.0
 70
     8
 71
     3
 72
    26
 73
    22
 74
     0
 42
0.0000000001
 43
0.0000000001
 40
5.289006243487586
 40
5.289006243487586
 40
5.289006243487586
 40
5.289006243487586
 40
5.59366077417351
 40
5.59366077417351
 40
5.901859471673116
 40
5.901859471673116
 40
6.218510633797276
 40
6.218510633797276
 40
6.543990871042164
 40
6.543990871042164
 40
6.875253962671263
 40
6.875253962671263
 40
7.208310324600938
 40
7.208310324600938
 40
7.539175967902717
 40
7.539175967902717
 40
7.863725321038643
 40
7.863725321038643
 40
8.178992224754731
 40
8.178992224754731
 40
8.430598897077379
 40
8.430598897077379
 40
8.430598897077379
 40
8.430598897077379
 10
2448.209499228948
 20
2644.245317285077
 30
0.0
 10
2446.815561181664
 20
2644.245317285077
 30
0.0
 10
2445.422327530131
 20
2644.483740967102
 30
0.0
 10
2442.771102448014
 20
2645.408993912715
 30
0.0
 10
2441.515671342838
 20
2646.1000435483
 30
0.0
 10
2439.248420143828
 20
2647.869475391714
 30
0.0
 10
2438.244130230929
 20
2648.957083897046
 30
0.0
 10
2436.582630524208
 20
2651.4271597584
 30
0.0
 10
2435.935527816019
 20
2652.816653234442
 30
0.0
 10
2435.069656791862
 20
2655.757768338811
 30
0.0
 10
2434.858531069376
 20
2657.311752280051
 30
0.0
 10
2434.901824402524
 20
2660.421248355935
 30
0.0
 10
2435.158794593172
 20
2661.976680517573
 30
0.0
 10
2436.122559210851
 20
2664.920633935905
 30
0.0
 10
2436.826623053832
 20
2666.310087426599
 30
0.0
 10
2438.61276832566
 20
2668.764671479247
 30
0.0
 10
2439.687791561138
 20
2669.835041639345
 30
0.0
 10
2442.090859436051
 20
2671.532819921925
 30
0.0
 10
2443.410769720498
 20
2672.171009598314
 30
0.0
 10
2445.90733658679
 20
2672.883270050534
 30
0.0
 10
2447.058280132645
 20
2673.045317285076
 30
0.0
 10
2448.209499228948
 20
2673.045317285076
 30
0.0
  0
ELLIPSE
  5
234
330
6C
100
AcDbEntity
  8
Widoczne (ISO)
100
AcDbEllipse
 10
2448.209499228948
 20
2421.045317285074
 30
0.0
 11
0.0000000000000515
 21
14.39999999999998
 31
0.0
210
0.0
220
0.0
230
0.9999999999999998
 40
0.9010083687611578
 41
3.1415926535898
 42
6.283185307179592
  0
SPLINE
  5
235
330
6C
100
AcDbEntity
  8
Widoczne (ISO)
100
AcDbSpline
210
0.0
220
0.0
230
1.0
 70
     8
 71
     3
 72
    26
 73
    22
 74
     0
 42
0.0000000001
 43
0.0000000001
 40
1.388152414289231
 40
1.388152414289231
 40
1.388152414289231
 40
1.388152414289231
 40
1.692806944975157
 40
1.692806944975157
 40
2.001005642474764
 40
2.001005642474764
 40
2.317656804598923
 40
2.317656804598923
 40
2.643137041843811
 40
2.643137041843811
 40
2.974400133472911
 40
2.974400133472911
 40
3.307456495402584
 40
3.307456495402584
 40
3.638322138704363
 40
3.638322138704363
 40
3.962871491840285
 40
3.962871491840285
 40
4.278138395556374
 40
4.278138395556374
 40
4.529745067879025
 40
4.529745067879025
 40
4.529745067879025
 40
4.529745067879025
 10
2448.209499228948
 20
2406.645317285074
 30
0.0
 10
2446.815561181664
 20
2406.645317285074
 30
0.0
 10
2445.422327530131
 20
2406.883740967099
 30
0.0
 10
2442.771102448014
 20
2407.808993912711
 30
0.0
 10
2441.515671342838
 20
2408.500043548296
 30
0.0
 10
2439.248420143828
 20
2410.26947539171
 30
0.0
 10
2438.244130230929
 20
2411.357083897042
 30
0.0
 10
2436.582630524208
 20
2413.827159758398
 30
0.0
 10
2435.935527816017
 20
2415.216653234438
 30
0.0
 10
2435.069656791862
 20
2418.157768338808
 30
0.0
 10
2434.858531069375
 20
2419.711752280047
 30
0.0
 10
2434.901824402523
 20
2422.821248355932
 30
0.0
 10
2435.158794593172
 20
2424.37668051757
 30
0.0
 10
2436.122559210851
 20
2427.320633935902
 30
0.0
 10
2436.826623053832
 20
2428.710087426595
 30
0.0
 10
2438.61276832566
 20
2431.164671479243
 30
0.0
 10
2439.687791561136
 20
2432.235041639341
 30
0.0
 10
2442.090859436051
 20
2433.932819921921
 30
0.0
 10
2443.410769720498
 20
2434.571009598311
 30
0.0
 10
2445.90733658679
 20
2435.28327005053
 30
0.0
 10
2447.058280132644
 20
2435.445317285074
 30
0.0
 10
2448.209499228948
 20
2435.445317285074
 30
0.0
  0
CIRCLE
  5
236
330
6C
100
AcDbEntity
  8
Widoczne (ISO)
100
AcDbCircle
 10
2520.757015814354
 20
2534.805317285075
 30
0.0
 40
7.200000000006451
  0
LINE
  5
237
330
6C
100
AcDbEntity
  8
Widoczne (ISO)
100
AcDbLine
 10
2490.145712229664
 20
2591.145317285074
 30
0.0
 11
2490.145712229664
 21
2590.785317285075
 31
0.0
  0
LINE
  5
238
330
6C
100
AcDbEntity
  8
Widoczne (ISO)
100
AcDbLine
 10
2490.145712229664
 20
2589.345317285074
 30
0.0
 11
2490.145712229664
 21
2586.465317285075
 31
0.0
  0
LINE
  5
239
330
6C
100
AcDbEntity
  8
Widoczne (ISO)
100
AcDbLine
 10
2475.745712229664
 20
2591.145317285074
 30
0.0
 11
2475.745712229664
 21
2590.785317285075
 31
0.0
  0
LINE
  5
23A
330
6C
100
AcDbEntity
  8
Widoczne (ISO)
100
AcDbLine
 10
2475.745712229664
 20
2589.345317285074
 30
0.0
 11
2475.745712229664
 21
2586.465317285075
 31
0.0
  0
LINE
  5
23B
330
6C
100
AcDbEntity
  8
Widoczne (ISO)
100
AcDbLine
 10
2540.825152782338
 20
2591.145317285074
 30
0.0
 11
2540.825152782338
 21
2590.785317285074
 31
0.0
  0
LINE
  5
23C
330
6C
100
AcDbEntity
  8
Widoczne (ISO)
100
AcDbLine
 10
2540.825152782338
 20
2589.345317285074
 30
0.0
 11
2540.825152782338
 21
2586.465317285074
 31
0.0
  0
LINE
  5
23D
330
6C
100
AcDbEntity
  8
Widoczne (ISO)
100
AcDbLine
 10
2526.425152782338
 20
2591.145317285074
 30
0.0
 11
2526.425152782338
 21
2590.785317285074
 31
0.0
  0
LINE
  5
23E
330
6C
100
AcDbEntity
  8
Widoczne (ISO)
100
AcDbLine
 10
2526.425152782338
 20
2589.345317285074
 30
0.0
 11
2526.425152782338
 21
2586.465317285074
 31
0.0
  0
LINE
  5
23F
330
6C
100
AcDbEntity
  8
Widoczne (ISO)
100
AcDbLine
 10
2439.500182431062
 20
2591.145317285074
 30
0.0
 11
2439.500182431062
 21
2590.785317285075
 31
0.0
  0
LINE
  5
240
330
6C
100
AcDbEntity
  8
Widoczne (ISO)
100
AcDbLine
 10
2439.500182431062
 20
2589.345317285074
 30
0.0
 11
2439.500182431062
 21
2586.465317285075
 31
0.0
  0
LINE
  5
241
330
6C
100
AcDbEntity
  8
Widoczne (ISO)
100
AcDbLine
 10
2425.100182431062
 20
2591.145317285074
 30
0.0
 11
2425.100182431062
 21
2590.785317285075
 31
0.0
  0
LINE
  5
242
330
6C
100
AcDbEntity
  8
Widoczne (ISO)
100
AcDbLine
 10
2425.100182431062
 20
2589.345317285074
 30
0.0
 11
2425.100182431062
 21
2586.465317285075
 31
0.0
  0
ARC
  5
243
330
6C
100
AcDbEntity
  8
Widoczne (ISO)
100
AcDbCircle
 10
2779.922204095953
 20
2618.274508047773
 30
0.0
 40
7.739999999999998
100
AcDbArc
 50
320.2791922043445
 51
143.5493971183193
  0
LINE
  5
244
330
6C
100
AcDbEntity
  8
Widoczne (ISO)
100
AcDbLine
 10
2785.875560750995
 20
2613.328282766018
 30
0.0
 11
2775.826410902498
 21
2601.232963665057
 31
0.0
  0
ARC
  5
245
330
6C
100
AcDbEntity
  8
Widoczne (ISO)
100
AcDbCircle
 10
2779.97991554555
 20
2597.782108817322
 30
0.0
 40
5.399999999999976
100
AcDbArc
 50
140.2791922043438
 51
192.3118899101169
  0
ARC
  5
246
330
6C
100
AcDbEntity
  8
Widoczne (ISO)
100
AcDbCircle
 10
2791.123422541576
 20
2255.993471359298
 30
0.0
 40
341.0326689223063
100
AcDbArc
 50
92.75962195120122
 51
95.19613099485622
  0
LINE
  5
247
330
6C
100
AcDbEntity
  8
Widoczne (ISO)
100
AcDbLine
 10
2760.23768598982
 20
2595.624672149106
 30
0.0
 11
2760.402153649864
 21
2604.874515976308
 31
0.0
  0
LINE
  5
248
330
6C
100
AcDbEntity
  8
Widoczne (ISO)
100
AcDbLine
 10
2760.402153649864
 20
2604.874515976308
 30
0.0
 11
2773.696385065937
 21
2622.873070584641
 31
0.0
  0
LINE
  5
249
330
6C
100
AcDbEntity
  8
Widoczne (ISO)
100
AcDbLine
 10
2818.68400697199
 20
2600.470930416459
 30
0.0
 11
2809.071197004158
 21
2612.915850719698
 31
0.0
  0
ARC
  5
24A
330
6C
100
AcDbEntity
  8
Widoczne (ISO)
100
AcDbCircle
 10
2815.19662854427
 20
2617.647308047773
 30
0.0
 40
7.740000000000008
100
AcDbArc
 50
34.41331228641962
 51
217.6835172003945
  0
LINE
  5
24B
330
6C
100
AcDbEntity
  8
Widoczne (ISO)
100
AcDbLine
 10
2821.581990847739
 20
2622.021636368035
 30
0.0
 11
2834.254702014197
 21
2603.522830096402
 31
0.0
  0
LINE
  5
24C
330
6C
100
AcDbEntity
  8
Widoczne (ISO)
100
AcDbLine
 10
2834.254702014197
 20
2603.522830096402
 30
0.0
 11
2834.090413937196
 21
2594.283086218951
 31
0.0
  0
ARC
  5
24D
330
6C
100
AcDbEntity
  8
Widoczne (ISO)
100
AcDbCircle
 10
2791.123422541563
 20
2255.993471359293
 30
0.0
 40
341.0073692334058
100
AcDbArc
 50
82.76148117547919
 51
85.20381317902666
  0
ARC
  5
24E
330
6C
100
AcDbEntity
  8
Widoczne (ISO)
100
AcDbCircle
 10
2814.410450083539
 20
2597.169913675941
 30
0.0
 40
5.399999999999991
100
AcDbArc
 50
345.3784969074721
 51
37.68351720039726
  0
LINE
  5
24F
330
6C
100
AcDbEntity
  8
Widoczne (ISO)
100
AcDbLine
 10
2756.82377235852
 20
2605.068058435648
 30
0.0
 11
2756.569816825871
 21
2590.785317285074
 31
0.0
  0
ARC
  5
250
330
6C
100
AcDbEntity
  8
Widoczne (ISO)
100
AcDbCircle
 10
2791.123422541571
 20
2255.993471359364
 30
0.0
 40
336.5702478923243
100
AcDbArc
 50
82.07012041464304
 51
95.89258899009719
  0
LINE
  5
251
330
6C
100
AcDbEntity
  8
Widoczne (ISO)
100
AcDbLine
 10
2837.557015814353
 20
2589.345317285074
 30
0.0
 11
2837.810971347002
 21
2603.628058435648
 31
0.0
  0
ARC
  5
252
330
6C
100
AcDbEntity
  8
Widoczne (ISO)
100
AcDbCircle
 10
2837.451028240386
 20
2603.634458435648
 30
0.0
 40
0.3600000000001283
100
AcDbArc
 50
358.981354702364
 51
34.4133122864126
  0
LINE
  5
253
330
6C
100
AcDbEntity
  8
Widoczne (ISO)
100
AcDbLine
 10
2837.748021835896
 20
2603.837915566823
 30
0.0
 11
2824.106436409575
 21
2623.751021983022
 31
0.0
  0
ARC
  5
254
330
6C
100
AcDbEntity
  8
Widoczne (ISO)
100
AcDbCircle
 10
2815.19662854427
 20
2617.647308047773
 30
0.0
 40
10.8
100
AcDbArc
 50
34.41331228642116
 51
217.6835172003959
  0
LINE
  5
255
330
6C
100
AcDbEntity
  8
Widoczne (ISO)
100
AcDbLine
 10
2806.649514767369
 20
2611.045274566738
 30
0.0
 11
2814.573847809428
 21
2600.786287496906
 31
0.0
  0
ARC
  5
256
330
6C
100
AcDbEntity
  8
Widoczne (ISO)
100
AcDbCircle
 10
2812.437069365202
 20
2599.135779126647
 30
0.0
 40
2.700000000000001
100
AcDbArc
 50
266.4522886212631
 51
37.68351720039246
  0
ARC
  5
257
330
6C
100
AcDbEntity
  8
Widoczne (ISO)
100
AcDbCircle
 10
2791.107603860647
 20
2255.103811178882
 30
0.0
 40
341.9925312053081
100
AcDbArc
 50
86.45228862126506
 51
91.51042078347527
  0
ARC
  5
258
330
6C
100
AcDbEntity
  8
Widoczne (ISO)
100
AcDbCircle
 10
2782.021935284225
 20
2599.676578087763
 30
0.0
 40
2.7
100
AcDbArc
 50
140.2791922043412
 51
271.5104207834738
  0
LINE
  5
259
330
6C
100
AcDbEntity
  8
Widoczne (ISO)
100
AcDbLine
 10
2779.945182962698
 20
2601.40200551163
 30
0.0
 11
2788.229213382058
 21
2611.372798352301
 31
0.0
  0
ARC
  5
25A
330
6C
100
AcDbEntity
  8
Widoczne (ISO)
100
AcDbCircle
 10
2779.922204095953
 20
2618.274508047773
 30
0.0
 40
10.8
100
AcDbArc
 50
320.2791922043451
 51
143.5493971183191
  0
LINE
  5
25B
330
6C
100
AcDbEntity
  8
Widoczne (ISO)
100
AcDbLine
 10
2771.235014751744
 20
2624.691106936425
 30
0.0
 11
2756.894142486995
 21
2605.27554506527
 31
0.0
  0
ARC
  5
25C
330
6C
100
AcDbEntity
  8
Widoczne (ISO)
100
AcDbCircle
 10
2757.183715465135
 20
2605.061658435648
 30
0.0
 40
0.3599999999999529
100
AcDbArc
 50
143.5493971183385
 51
178.9813547024144
  0
ARC
  5
25D
330
6C
100
AcDbEntity
  8
Widoczne (ISO)
100
AcDbCircle
 10
1033.991827532752
 20
2618.274508047781
 30
0.0
 40
7.740000000000017
100
AcDbArc
 50
36.45060288167953
 51
219.7208077956556
  0
LINE
  5
25E
330
6C
100
AcDbEntity
  8
Widoczne (ISO)
100
AcDbLine
 10
1040.217646562769
 20
2622.873070584649
 30
0.0
 11
1053.511877978842
 21
2604.874515976316
 31
0.0
  0
LINE
  5
25F
330
6C
100
AcDbEntity
  8
Widoczne (ISO)
100
AcDbLine
 10
1053.511877978842
 20
2604.874515976316
 30
0.0
 11
1053.676345638886
 21
2595.624672149114
 31
0.0
  0
ARC
  5
260
330
6C
100
AcDbEntity
  8
Widoczne (ISO)
100
AcDbCircle
 10
1022.790609087133
 20
2255.993471359349
 30
0.0
 40
341.0326689222633
100
AcDbArc
 50
84.8038690051438
 51
87.24037804879896
  0
ARC
  5
261
330
6C
100
AcDbEntity
  8
Widoczne (ISO)
100
AcDbCircle
 10
1033.934116083155
 20
2597.782108817329
 30
0.0
 40
5.399999999999995
100
AcDbArc
 50
347.6881100898794
 51
39.7208077956536
  0
LINE
  5
262
330
6C
100
AcDbEntity
  8
Widoczne (ISO)
100
AcDbLine
 10
1038.087620726208
 20
2601.232963665065
 30
0.0
 11
1028.03847087771
 21
2613.328282766026
 31
0.0
  0
LINE
  5
263
330
6C
100
AcDbEntity
  8
Widoczne (ISO)
100
AcDbLine
 10
1004.842834624548
 20
2612.915850719706
 30
0.0
 11
995.230024656716
 21
2600.470930416467
 31
0.0
  0
ARC
  5
264
330
6C
100
AcDbEntity
  8
Widoczne (ISO)
100
AcDbCircle
 10
999.5035815451668
 20
2597.16991367595
 30
0.0
 40
5.400000000000002
100
AcDbArc
 50
142.3164827996054
 51
194.6215030925282
  0
ARC
  5
265
330
6C
100
AcDbEntity
  8
Widoczne (ISO)
100
AcDbCircle
 10
1022.790609087143
 20
2255.993471359301
 30
0.0
 40
341.0073692334054
100
AcDbArc
 50
94.79618682097331
 51
97.23851882452112
  0
LINE
  5
266
330
6C
100
AcDbEntity
  8
Widoczne (ISO)
100
AcDbLine
 10
979.8236176915096
 20
2594.28308621896
 30
0.0
 11
979.6593296145086
 21
2603.522830096411
 31
0.0
  0
LINE
  5
267
330
6C
100
AcDbEntity
  8
Widoczne (ISO)
100
AcDbLine
 10
979.6593296145088
 20
2603.522830096411
 30
0.0
 11
992.3320407809672
 21
2622.021636368043
 31
0.0
  0
ARC
  5
268
330
6C
100
AcDbEntity
  8
Widoczne (ISO)
100
AcDbCircle
 10
998.7174030844359
 20
2617.647308047781
 30
0.0
 40
7.740000000000018
100
AcDbArc
 50
322.3164827996043
 51
145.586687713579
  0
ARC
  5
269
330
6C
100
AcDbEntity
  8
Widoczne (ISO)
100
AcDbCircle
 10
1056.730316163571
 20
2605.061658435656
 30
0.0
 40
0.3599999999999527
100
AcDbArc
 50
1.018645297636392
 51
36.45060288171753
  0
LINE
  5
26A
330
6C
100
AcDbEntity
  8
Widoczne (ISO)
100
AcDbLine
 10
1057.019889141711
 20
2605.275545065278
 30
0.0
 11
1042.679016876962
 21
2624.691106936433
 31
0.0
  0
ARC
  5
26B
330
6C
100
AcDbEntity
  8
Widoczne (ISO)
100
AcDbCircle
 10
1033.991827532752
 20
2618.274508047781
 30
0.0
 40
10.80000000000002
100
AcDbArc
 50
36.45060288167986
 51
219.7208077956544
  0
LINE
  5
26C
330
6C
100
AcDbEntity
  8
Widoczne (ISO)
100
AcDbLine
 10
1025.684818246648
 20
2611.372798352309
 30
0.0
 11
1033.968848666008
 21
2601.402005511638
 31
0.0
  0
ARC
  5
26D
330
6C
100
AcDbEntity
  8
Widoczne (ISO)
100
AcDbCircle
 10
1031.892096344481
 20
2599.67657808777
 30
0.0
 40
2.700000000000006
100
AcDbArc
 50
268.4895792165231
 51
39.7208077956536
  0
ARC
  5
26E
330
6C
100
AcDbEntity
  8
Widoczne (ISO)
100
AcDbCircle
 10
1022.80642776806
 20
2255.103811178889
 30
0.0
 40
341.9925312053088
100
AcDbArc
 50
88.48957921652472
 51
93.54771137873511
  0
ARC
  5
26F
330
6C
100
AcDbEntity
  8
Widoczne (ISO)
100
AcDbCircle
 10
1001.476962263503
 20
2599.135779126655
 30
0.0
 40
2.700000000000001
100
AcDbArc
 50
142.316482799598
 51
273.5477113787335
  0
LINE
  5
270
330
6C
100
AcDbEntity
  8
Widoczne (ISO)
100
AcDbLine
 10
999.3401838192779
 20
2600.786287496914
 30
0.0
 11
1007.264516861337
 21
2611.045274566746
 31
0.0
  0
ARC
  5
271
330
6C
100
AcDbEntity
  8
Widoczne (ISO)
100
AcDbCircle
 10
998.7174030844359
 20
2617.647308047781
 30
0.0
 40
10.80000000000002
100
AcDbArc
 50
322.3164827996046
 51
145.5866877135788
  0
LINE
  5
272
330
6C
100
AcDbEntity
  8
Widoczne (ISO)
100
AcDbLine
 10
989.8075952191314
 20
2623.751021983031
 30
0.0
 11
976.1660097928098
 21
2603.837915566832
 31
0.0
  0
ARC
  5
273
330
6C
100
AcDbEntity
  8
Widoczne (ISO)
100
AcDbCircle
 10
976.4630033883204
 20
2603.634458435656
 30
0.0
 40
0.3600000000001271
100
AcDbArc
 50
145.5866877135874
 51
181.0186452976364
  0
LINE
  5
274
330
6C
100
AcDbEntity
  8
Widoczne (ISO)
100
AcDbLine
 10
976.1030602817044
 20
2603.628058435656
 30
0.0
 11
976.3570158143528
 21
2589.345317285081
 31
0.0
  0
ARC
  5
275
330
6C
100
AcDbEntity
  8
Widoczne (ISO)
100
AcDbCircle
 10
1022.790609087135
 20
2255.993471359379
 30
0.0
 40
336.5702478923167
100
AcDbArc
 50
84.10741100990296
 51
97.92987958535746
  0
LINE
  5
276
330
6C
100
AcDbEntity
  8
Widoczne (ISO)
100
AcDbLine
 10
1057.344214802835
 20
2590.785317285082
 30
0.0
 11
1057.090259270186
 21
2605.068058435656
 31
0.0
  0
LINE
  5
277
330
6C
100
AcDbEntity
  8
Widoczne (ISO)
100
AcDbLine
 10
973.8370158143553
 20
2586.465317285078
 30
0.0
 11
973.8370158143553
 21
2484.585317285078
 31
0.0
  0
LINE
  5
278
330
6C
100
AcDbEntity
  8
Widoczne (ISO)
100
AcDbLine
 10
973.8370158143553
 20
2484.585317285078
 30
0.0
 11
2841.517015814354
 21
2484.585317285073
 31
0.0
  0
LINE
  5
279
330
6C
100
AcDbEntity
  8
Widoczne (ISO)
100
AcDbLine
 10
2841.517015814354
 20
2484.585317285073
 30
0.0
 11
2841.517015814354
 21
2586.465317285073
 31
0.0
  0
LINE
  5
27A
330
6C
100
AcDbEntity
  8
Widoczne (ISO)
100
AcDbLine
 10
2841.517015814354
 20
2586.465317285073
 30
0.0
 11
973.8370158143553
 21
2586.465317285078
 31
0.0
  0
LINE
  5
27B
330
6C
100
AcDbEntity
  8
Widoczne (ISO)
100
AcDbLine
 10
943.9570158143522
 20
2630.001107285078
 30
0.0
 11
933.1570158143522
 21
2630.001107285078
 31
0.0
  0
LINE
  5
27C
330
6C
100
AcDbEntity
  8
Widoczne (ISO)
100
AcDbLine
 10
934.2612258143519
 20
2631.105317285078
 30
0.0
 11
942.8528058143525
 21
2631.105317285078
 31
0.0
  0
LINE
  5
27D
330
6C
100
AcDbEntity
  8
Widoczne (ISO)
100
AcDbLine
 10
942.8528058143525
 20
2631.105317285078
 30
0.0
 11
943.9570158143522
 21
2630.001107285078
 31
0.0
  0
LINE
  5
27E
330
6C
100
AcDbEntity
  8
Widoczne (ISO)
100
AcDbLine
 10
934.2612258143519
 20
2631.105317285078
 30
0.0
 11
933.1570158143524
 21
2630.001107285078
 31
0.0
  0
LINE
  5
27F
330
6C
100
AcDbEntity
  8
Widoczne (ISO)
100
AcDbLine
 10
946.4770158143522
 20
2602.305317285078
 30
0.0
 11
930.6370158143524
 21
2602.305317285078
 31
0.0
  0
ARC
  5
280
330
6C
100
AcDbEntity
  8
Widoczne (ISO)
100
AcDbCircle
 10
946.4770158143522
 20
2603.385317285078
 30
0.0
 40
1.08
100
AcDbArc
 50
270.0
 51
0.0
  0
ARC
  5
281
330
6C
100
AcDbEntity
  8
Widoczne (ISO)
100
AcDbCircle
 10
930.6370158143524
 20
2603.385317285078
 30
0.0
 40
1.08
100
AcDbArc
 50
180.0
 51
270.0
  0
LINE
  5
282
330
6C
100
AcDbEntity
  8
Widoczne (ISO)
100
AcDbLine
 10
933.1570158143524
 20
2629.485317285078
 30
0.0
 11
933.1570158143524
 21
2630.001107285078
 31
0.0
  0
LINE
  5
283
330
6C
100
AcDbEntity
  8
Widoczne (ISO)
100
AcDbLine
 10
943.9570158143522
 20
2629.485317285078
 30
0.0
 11
943.9570158143522
 21
2630.001107285078
 31
0.0
  0
LINE
  5
284
330
6C
100
AcDbEntity
  8
Widoczne (ISO)
100
AcDbLine
 10
929.5570158143522
 20
2603.385317285078
 30
0.0
 11
929.5570158143522
 21
2613.105317285078
 31
0.0
  0
LINE
  5
285
330
6C
100
AcDbEntity
  8
Widoczne (ISO)
100
AcDbLine
 10
947.5570158143524
 20
2603.385317285078
 30
0.0
 11
947.5570158143524
 21
2613.105317285078
 31
0.0
  0
LINE
  5
286
330
6C
100
AcDbEntity
  8
Widoczne (ISO)
100
AcDbLine
 10
885.277015814352
 20
2602.305317285078
 30
0.0
 11
869.4370158143522
 21
2602.305317285078
 31
0.0
  0
ARC
  5
287
330
6C
100
AcDbEntity
  8
Widoczne (ISO)
100
AcDbCircle
 10
885.277015814352
 20
2603.385317285078
 30
0.0
 40
1.08
100
AcDbArc
 50
270.0
 51
0.0
  0
ARC
  5
288
330
6C
100
AcDbEntity
  8
Widoczne (ISO)
100
AcDbCircle
 10
869.4370158143522
 20
2603.385317285078
 30
0.0
 40
1.08
100
AcDbArc
 50
180.0
 51
270.0
  0
LINE
  5
289
330
6C
100
AcDbEntity
  8
Widoczne (ISO)
100
AcDbLine
 10
868.3570158143522
 20
2603.385317285078
 30
0.0
 11
868.3570158143522
 21
2613.105317285078
 31
0.0
  0
LINE
  5
28A
330
6C
100
AcDbEntity
  8
Widoczne (ISO)
100
AcDbLine
 10
886.3570158143522
 20
2603.385317285078
 30
0.0
 11
886.3570158143522
 21
2613.105317285078
 31
0.0
  0
LINE
  5
28B
330
6C
100
AcDbEntity
  8
Widoczne (ISO)
100
AcDbLine
 10
2937.727015814362
 20
2699.685317285079
 30
0.0
 11
2938.613449500019
 21
2699.685317285079
 31
0.0
  0
ARC
  5
28C
330
6C
100
AcDbEntity
  8
Widoczne (ISO)
100
AcDbCircle
 10
2938.613449500019
 20
2699.865317285079
 30
0.0
 40
0.1799999999999642
100
AcDbArc
 50
270.0
 51
4.159642293712603
  0
LINE
  5
28D
330
6C
100
AcDbEntity
  8
Widoczne (ISO)
100
AcDbLine
 10
2938.792975347071
 20
2699.878373710318
 30
0.0
 11
2937.727015814362
 21
2714.535317285078
 31
0.0
  0
LINE
  5
28E
330
6C
100
AcDbEntity
  8
Widoczne (ISO)
100
AcDbLine
 10
2937.727015814362
 20
2714.535317285078
 30
0.0
 11
2937.727015814362
 21
2721.285317285078
 31
0.0
  0
LINE
  5
28F
330
6C
100
AcDbEntity
  8
Widoczne (ISO)
100
AcDbLine
 10
2937.727015814362
 20
2721.285317285078
 30
0.0
 11
2937.367015814361
 21
2721.285317285078
 31
0.0
  0
LINE
  5
290
330
6C
100
AcDbEntity
  8
Widoczne (ISO)
100
AcDbLine
 10
2937.367015814361
 20
2721.285317285078
 30
0.0
 11
2937.367015814361
 21
2724.525317285078
 31
0.0
  0
LINE
  5
291
330
6C
100
AcDbEntity
  8
Widoczne (ISO)
100
AcDbLine
 10
2937.367015814361
 20
2724.525317285078
 30
0.0
 11
2937.727015814362
 21
2724.525317285078
 31
0.0
  0
LINE
  5
292
330
6C
100
AcDbEntity
  8
Widoczne (ISO)
100
AcDbLine
 10
2937.727015814362
 20
2724.525317285078
 30
0.0
 11
2937.727015814362
 21
2726.685317285078
 31
0.0
  0
LINE
  5
293
330
6C
100
AcDbEntity
  8
Widoczne (ISO)
100
AcDbLine
 10
2937.727015814362
 20
2726.685317285078
 30
0.0
 11
2937.367015814361
 21
2726.685317285078
 31
0.0
  0
LINE
  5
294
330
6C
100
AcDbEntity
  8
Widoczne (ISO)
100
AcDbLine
 10
2937.367015814361
 20
2726.685317285078
 30
0.0
 11
2937.367015814361
 21
2729.925317285078
 31
0.0
  0
LINE
  5
295
330
6C
100
AcDbEntity
  8
Widoczne (ISO)
100
AcDbLine
 10
2937.367015814361
 20
2729.925317285078
 30
0.0
 11
2937.727015814362
 21
2729.925317285078
 31
0.0
  0
LINE
  5
296
330
6C
100
AcDbEntity
  8
Widoczne (ISO)
100
AcDbLine
 10
2937.727015814362
 20
2729.925317285078
 30
0.0
 11
2937.727015814362
 21
2732.085317285078
 31
0.0
  0
LINE
  5
297
330
6C
100
AcDbEntity
  8
Widoczne (ISO)
100
AcDbLine
 10
2937.727015814362
 20
2732.085317285078
 30
0.0
 11
2937.367015814361
 21
2732.085317285078
 31
0.0
  0
LINE
  5
298
330
6C
100
AcDbEntity
  8
Widoczne (ISO)
100
AcDbLine
 10
2937.367015814361
 20
2732.085317285078
 30
0.0
 11
2937.367015814361
 21
2735.325317285078
 31
0.0
  0
LINE
  5
299
330
6C
100
AcDbEntity
  8
Widoczne (ISO)
100
AcDbLine
 10
2937.367015814361
 20
2735.325317285078
 30
0.0
 11
2937.727015814362
 21
2735.325317285078
 31
0.0
  0
LINE
  5
29A
330
6C
100
AcDbEntity
  8
Widoczne (ISO)
100
AcDbLine
 10
2937.727015814362
 20
2735.325317285078
 30
0.0
 11
2937.727015814362
 21
2872.485317285078
 31
0.0
  0
LINE
  5
29B
330
6C
100
AcDbEntity
  8
Widoczne (ISO)
100
AcDbLine
 10
2937.727015814362
 20
2872.485317285078
 30
0.0
 11
2936.197015814361
 21
2872.485317285078
 31
0.0
  0
LINE
  5
29C
330
6C
100
AcDbEntity
  8
Widoczne (ISO)
100
AcDbLine
 10
2936.197015814361
 20
2872.485317285078
 30
0.0
 11
2936.197015814361
 21
2699.408394208155
 31
0.0
  0
LINE
  5
29D
330
6C
100
AcDbEntity
  8
Widoczne (ISO)
100
AcDbLine
 10
2936.197015814361
 20
2699.408394208155
 30
0.0
 11
2939.437015814362
 21
2696.085317285078
 31
0.0
  0
LINE
  5
29E
330
6C
100
AcDbEntity
  8
Widoczne (ISO)
100
AcDbLine
 10
2939.437015814362
 20
2696.085317285078
 30
0.0
 11
2941.237015814362
 21
2696.085317285078
 31
0.0
  0
LINE
  5
29F
330
6C
100
AcDbEntity
  8
Widoczne (ISO)
100
AcDbLine
 10
2941.237015814362
 20
2696.085317285078
 30
0.0
 11
2937.727015814362
 21
2699.685317285079
 31
0.0
  0
LINE
  5
2A0
330
6C
100
AcDbEntity
  8
Widoczne (ISO)
100
AcDbLine
 10
2920.100582128704
 20
2699.685317285079
 30
0.0
 11
2920.987015814361
 21
2699.685317285079
 31
0.0
  0
LINE
  5
2A1
330
6C
100
AcDbEntity
  8
Widoczne (ISO)
100
AcDbLine
 10
2920.987015814361
 20
2699.685317285079
 30
0.0
 11
2917.477015814363
 21
2696.085317285078
 31
0.0
  0
LINE
  5
2A2
330
6C
100
AcDbEntity
  8
Widoczne (ISO)
100
AcDbLine
 10
2917.477015814363
 20
2696.085317285078
 30
0.0
 11
2919.277015814362
 21
2696.085317285078
 31
0.0
  0
LINE
  5
2A3
330
6C
100
AcDbEntity
  8
Widoczne (ISO)
100
AcDbLine
 10
2919.277015814362
 20
2696.085317285078
 30
0.0
 11
2922.517015814362
 21
2699.408394208155
 31
0.0
  0
LINE
  5
2A4
330
6C
100
AcDbEntity
  8
Widoczne (ISO)
100
AcDbLine
 10
2922.517015814362
 20
2699.408394208155
 30
0.0
 11
2922.517015814362
 21
2872.485317285078
 31
0.0
  0
LINE
  5
2A5
330
6C
100
AcDbEntity
  8
Widoczne (ISO)
100
AcDbLine
 10
2922.517015814362
 20
2872.485317285078
 30
0.0
 11
2920.987015814361
 21
2872.485317285078
 31
0.0
  0
LINE
  5
2A6
330
6C
100
AcDbEntity
  8
Widoczne (ISO)
100
AcDbLine
 10
2920.987015814361
 20
2872.485317285078
 30
0.0
 11
2920.987015814361
 21
2735.325317285078
 31
0.0
  0
LINE
  5
2A7
330
6C
100
AcDbEntity
  8
Widoczne (ISO)
100
AcDbLine
 10
2920.987015814361
 20
2735.325317285078
 30
0.0
 11
2921.347015814362
 21
2735.325317285078
 31
0.0
  0
LINE
  5
2A8
330
6C
100
AcDbEntity
  8
Widoczne (ISO)
100
AcDbLine
 10
2921.347015814362
 20
2735.325317285078
 30
0.0
 11
2921.347015814362
 21
2732.085317285078
 31
0.0
  0
LINE
  5
2A9
330
6C
100
AcDbEntity
  8
Widoczne (ISO)
100
AcDbLine
 10
2921.347015814362
 20
2732.085317285078
 30
0.0
 11
2920.987015814361
 21
2732.085317285078
 31
0.0
  0
LINE
  5
2AA
330
6C
100
AcDbEntity
  8
Widoczne (ISO)
100
AcDbLine
 10
2920.987015814361
 20
2732.085317285078
 30
0.0
 11
2920.987015814361
 21
2729.925317285078
 31
0.0
  0
LINE
  5
2AB
330
6C
100
AcDbEntity
  8
Widoczne (ISO)
100
AcDbLine
 10
2920.987015814361
 20
2729.925317285078
 30
0.0
 11
2921.347015814362
 21
2729.925317285078
 31
0.0
  0
LINE
  5
2AC
330
6C
100
AcDbEntity
  8
Widoczne (ISO)
100
AcDbLine
 10
2921.347015814362
 20
2729.925317285078
 30
0.0
 11
2921.347015814362
 21
2726.685317285078
 31
0.0
  0
LINE
  5
2AD
330
6C
100
AcDbEntity
  8
Widoczne (ISO)
100
AcDbLine
 10
2921.347015814362
 20
2726.685317285078
 30
0.0
 11
2920.987015814361
 21
2726.685317285078
 31
0.0
  0
LINE
  5
2AE
330
6C
100
AcDbEntity
  8
Widoczne (ISO)
100
AcDbLine
 10
2920.987015814361
 20
2726.685317285078
 30
0.0
 11
2920.987015814361
 21
2724.525317285078
 31
0.0
  0
LINE
  5
2AF
330
6C
100
AcDbEntity
  8
Widoczne (ISO)
100
AcDbLine
 10
2920.987015814361
 20
2724.525317285078
 30
0.0
 11
2921.347015814362
 21
2724.525317285078
 31
0.0
  0
LINE
  5
2B0
330
6C
100
AcDbEntity
  8
Widoczne (ISO)
100
AcDbLine
 10
2921.347015814362
 20
2724.525317285078
 30
0.0
 11
2921.347015814362
 21
2721.285317285078
 31
0.0
  0
LINE
  5
2B1
330
6C
100
AcDbEntity
  8
Widoczne (ISO)
100
AcDbLine
 10
2921.347015814362
 20
2721.285317285078
 30
0.0
 11
2920.987015814361
 21
2721.285317285078
 31
0.0
  0
LINE
  5
2B2
330
6C
100
AcDbEntity
  8
Widoczne (ISO)
100
AcDbLine
 10
2920.987015814361
 20
2721.285317285078
 30
0.0
 11
2920.987015814361
 21
2714.535317285078
 31
0.0
  0
LINE
  5
2B3
330
6C
100
AcDbEntity
  8
Widoczne (ISO)
100
AcDbLine
 10
2920.987015814361
 20
2714.535317285078
 30
0.0
 11
2919.921056281652
 21
2699.878373710318
 31
0.0
  0
ARC
  5
2B4
330
6C
100
AcDbEntity
  8
Widoczne (ISO)
100
AcDbCircle
 10
2920.100582128704
 20
2699.865317285079
 30
0.0
 40
0.1799999999999694
100
AcDbArc
 50
175.8403577062874
 51
270.0
  0
LINE
  5
2B5
330
6C
100
AcDbEntity
  8
Widoczne (ISO)
100
AcDbLine
 10
892.9270158143522
 20
2699.685317285079
 30
0.0
 11
893.8134495000092
 21
2699.685317285079
 31
0.0
  0
ARC
  5
2B6
330
6C
100
AcDbEntity
  8
Widoczne (ISO)
100
AcDbCircle
 10
893.8134495000095
 20
2699.865317285079
 30
0.0
 40
0.1799999999999642
100
AcDbArc
 50
270.0
 51
4.159642293705248
  0
LINE
  5
2B7
330
6C
100
AcDbEntity
  8
Widoczne (ISO)
100
AcDbLine
 10
893.9929753470622
 20
2699.878373710318
 30
0.0
 11
892.9270158143522
 21
2714.535317285078
 31
0.0
  0
LINE
  5
2B8
330
6C
100
AcDbEntity
  8
Widoczne (ISO)
100
AcDbLine
 10
892.9270158143522
 20
2714.535317285078
 30
0.0
 11
892.9270158143522
 21
2721.285317285078
 31
0.0
  0
LINE
  5
2B9
330
6C
100
AcDbEntity
  8
Widoczne (ISO)
100
AcDbLine
 10
892.9270158143522
 20
2721.285317285078
 30
0.0
 11
892.5670158143521
 21
2721.285317285078
 31
0.0
  0
LINE
  5
2BA
330
6C
100
AcDbEntity
  8
Widoczne (ISO)
100
AcDbLine
 10
892.5670158143521
 20
2721.285317285078
 30
0.0
 11
892.5670158143521
 21
2724.525317285078
 31
0.0
  0
LINE
  5
2BB
330
6C
100
AcDbEntity
  8
Widoczne (ISO)
100
AcDbLine
 10
892.5670158143521
 20
2724.525317285078
 30
0.0
 11
892.9270158143522
 21
2724.525317285078
 31
0.0
  0
LINE
  5
2BC
330
6C
100
AcDbEntity
  8
Widoczne (ISO)
100
AcDbLine
 10
892.9270158143522
 20
2724.525317285078
 30
0.0
 11
892.9270158143522
 21
2726.685317285078
 31
0.0
  0
LINE
  5
2BD
330
6C
100
AcDbEntity
  8
Widoczne (ISO)
100
AcDbLine
 10
892.9270158143522
 20
2726.685317285078
 30
0.0
 11
892.5670158143521
 21
2726.685317285078
 31
0.0
  0
LINE
  5
2BE
330
6C
100
AcDbEntity
  8
Widoczne (ISO)
100
AcDbLine
 10
892.5670158143521
 20
2726.685317285078
 30
0.0
 11
892.5670158143521
 21
2729.925317285078
 31
0.0
  0
LINE
  5
2BF
330
6C
100
AcDbEntity
  8
Widoczne (ISO)
100
AcDbLine
 10
892.5670158143521
 20
2729.925317285078
 30
0.0
 11
892.9270158143522
 21
2729.925317285078
 31
0.0
  0
LINE
  5
2C0
330
6C
100
AcDbEntity
  8
Widoczne (ISO)
100
AcDbLine
 10
892.9270158143522
 20
2729.925317285078
 30
0.0
 11
892.9270158143522
 21
2732.085317285078
 31
0.0
  0
LINE
  5
2C1
330
6C
100
AcDbEntity
  8
Widoczne (ISO)
100
AcDbLine
 10
892.9270158143522
 20
2732.085317285078
 30
0.0
 11
892.5670158143521
 21
2732.085317285078
 31
0.0
  0
LINE
  5
2C2
330
6C
100
AcDbEntity
  8
Widoczne (ISO)
100
AcDbLine
 10
892.5670158143521
 20
2732.085317285078
 30
0.0
 11
892.5670158143521
 21
2735.325317285078
 31
0.0
  0
LINE
  5
2C3
330
6C
100
AcDbEntity
  8
Widoczne (ISO)
100
AcDbLine
 10
892.5670158143521
 20
2735.325317285078
 30
0.0
 11
892.9270158143522
 21
2735.325317285078
 31
0.0
  0
LINE
  5
2C4
330
6C
100
AcDbEntity
  8
Widoczne (ISO)
100
AcDbLine
 10
892.9270158143522
 20
2735.325317285078
 30
0.0
 11
892.9270158143522
 21
2872.485317285078
 31
0.0
  0
LINE
  5
2C5
330
6C
100
AcDbEntity
  8
Widoczne (ISO)
100
AcDbLine
 10
892.9270158143522
 20
2872.485317285078
 30
0.0
 11
891.3970158143525
 21
2872.485317285078
 31
0.0
  0
LINE
  5
2C6
330
6C
100
AcDbEntity
  8
Widoczne (ISO)
100
AcDbLine
 10
891.3970158143525
 20
2872.485317285078
 30
0.0
 11
891.3970158143525
 21
2699.408394208155
 31
0.0
  0
LINE
  5
2C7
330
6C
100
AcDbEntity
  8
Widoczne (ISO)
100
AcDbLine
 10
891.3970158143525
 20
2699.408394208155
 30
0.0
 11
894.6370158143521
 21
2696.085317285078
 31
0.0
  0
LINE
  5
2C8
330
6C
100
AcDbEntity
  8
Widoczne (ISO)
100
AcDbLine
 10
894.6370158143521
 20
2696.085317285078
 30
0.0
 11
896.4370158143522
 21
2696.085317285078
 31
0.0
  0
LINE
  5
2C9
330
6C
100
AcDbEntity
  8
Widoczne (ISO)
100
AcDbLine
 10
896.4370158143522
 20
2696.085317285078
 30
0.0
 11
892.9270158143522
 21
2699.685317285079
 31
0.0
  0
LINE
  5
2CA
330
6C
100
AcDbEntity
  8
Widoczne (ISO)
100
AcDbLine
 10
875.3005821286949
 20
2699.685317285079
 30
0.0
 11
876.1870158143521
 21
2699.685317285079
 31
0.0
  0
LINE
  5
2CB
330
6C
100
AcDbEntity
  8
Widoczne (ISO)
100
AcDbLine
 10
876.1870158143521
 20
2699.685317285079
 30
0.0
 11
872.6770158143521
 21
2696.085317285078
 31
0.0
  0
LINE
  5
2CC
330
6C
100
AcDbEntity
  8
Widoczne (ISO)
100
AcDbLine
 10
872.6770158143521
 20
2696.085317285078
 30
0.0
 11
874.4770158143522
 21
2696.085317285078
 31
0.0
  0
LINE
  5
2CD
330
6C
100
AcDbEntity
  8
Widoczne (ISO)
100
AcDbLine
 10
874.4770158143522
 20
2696.085317285078
 30
0.0
 11
877.7170158143521
 21
2699.408394208155
 31
0.0
  0
LINE
  5
2CE
330
6C
100
AcDbEntity
  8
Widoczne (ISO)
100
AcDbLine
 10
877.7170158143521
 20
2699.408394208155
 30
0.0
 11
877.7170158143523
 21
2872.485317285078
 31
0.0
  0
LINE
  5
2CF
330
6C
100
AcDbEntity
  8
Widoczne (ISO)
100
AcDbLine
 10
877.7170158143523
 20
2872.485317285078
 30
0.0
 11
876.1870158143521
 21
2872.485317285078
 31
0.0
  0
LINE
  5
2D0
330
6C
100
AcDbEntity
  8
Widoczne (ISO)
100
AcDbLine
 10
876.1870158143521
 20
2872.485317285078
 30
0.0
 11
876.1870158143521
 21
2735.325317285078
 31
0.0
  0
LINE
  5
2D1
330
6C
100
AcDbEntity
  8
Widoczne (ISO)
100
AcDbLine
 10
876.1870158143521
 20
2735.325317285078
 30
0.0
 11
876.5470158143521
 21
2735.325317285078
 31
0.0
  0
LINE
  5
2D2
330
6C
100
AcDbEntity
  8
Widoczne (ISO)
100
AcDbLine
 10
876.5470158143521
 20
2735.325317285078
 30
0.0
 11
876.5470158143521
 21
2732.085317285078
 31
0.0
  0
LINE
  5
2D3
330
6C
100
AcDbEntity
  8
Widoczne (ISO)
100
AcDbLine
 10
876.5470158143521
 20
2732.085317285078
 30
0.0
 11
876.1870158143521
 21
2732.085317285078
 31
0.0
  0
LINE
  5
2D4
330
6C
100
AcDbEntity
  8
Widoczne (ISO)
100
AcDbLine
 10
876.1870158143521
 20
2732.085317285078
 30
0.0
 11
876.1870158143521
 21
2729.925317285078
 31
0.0
  0
LINE
  5
2D5
330
6C
100
AcDbEntity
  8
Widoczne (ISO)
100
AcDbLine
 10
876.1870158143521
 20
2729.925317285078
 30
0.0
 11
876.5470158143521
 21
2729.925317285078
 31
0.0
  0
LINE
  5
2D6
330
6C
100
AcDbEntity
  8
Widoczne (ISO)
100
AcDbLine
 10
876.5470158143521
 20
2729.925317285078
 30
0.0
 11
876.5470158143521
 21
2726.685317285078
 31
0.0
  0
LINE
  5
2D7
330
6C
100
AcDbEntity
  8
Widoczne (ISO)
100
AcDbLine
 10
876.5470158143521
 20
2726.685317285078
 30
0.0
 11
876.1870158143521
 21
2726.685317285078
 31
0.0
  0
LINE
  5
2D8
330
6C
100
AcDbEntity
  8
Widoczne (ISO)
100
AcDbLine
 10
876.1870158143521
 20
2726.685317285078
 30
0.0
 11
876.1870158143521
 21
2724.525317285078
 31
0.0
  0
LINE
  5
2D9
330
6C
100
AcDbEntity
  8
Widoczne (ISO)
100
AcDbLine
 10
876.1870158143521
 20
2724.525317285078
 30
0.0
 11
876.5470158143521
 21
2724.525317285078
 31
0.0
  0
LINE
  5
2DA
330
6C
100
AcDbEntity
  8
Widoczne (ISO)
100
AcDbLine
 10
876.5470158143521
 20
2724.525317285078
 30
0.0
 11
876.5470158143521
 21
2721.285317285078
 31
0.0
  0
LINE
  5
2DB
330
6C
100
AcDbEntity
  8
Widoczne (ISO)
100
AcDbLine
 10
876.5470158143521
 20
2721.285317285078
 30
0.0
 11
876.1870158143521
 21
2721.285317285078
 31
0.0
  0
LINE
  5
2DC
330
6C
100
AcDbEntity
  8
Widoczne (ISO)
100
AcDbLine
 10
876.1870158143521
 20
2721.285317285078
 30
0.0
 11
876.1870158143521
 21
2714.535317285078
 31
0.0
  0
LINE
  5
2DD
330
6C
100
AcDbEntity
  8
Widoczne (ISO)
100
AcDbLine
 10
876.1870158143521
 20
2714.535317285078
 30
0.0
 11
875.1210562816423
 21
2699.878373710318
 31
0.0
  0
ARC
  5
2DE
330
6C
100
AcDbEntity
  8
Widoczne (ISO)
100
AcDbCircle
 10
875.3005821286949
 20
2699.865317285079
 30
0.0
 40
0.1799999999999694
100
AcDbArc
 50
175.8403577062948
 51
270.0000000000509
  0
LINE
  5
2DF
330
6C
100
AcDbEntity
  8
Widoczne (ISO)
100
AcDbLine
 10
2929.357015814361
 20
2909.385317285078
 30
0.0
 11
2923.957015814361
 21
2900.032242924206
 31
0.0
  0
LINE
  5
2E0
330
6C
100
AcDbEntity
  8
Widoczne (ISO)
100
AcDbLine
 10
2923.957015814361
 20
2900.032242924206
 30
0.0
 11
2923.957015814361
 21
2772.585317285078
 31
0.0
  0
LINE
  5
2E1
330
6C
100
AcDbEntity
  8
Widoczne (ISO)
100
AcDbLine
 10
2923.957015814361
 20
2772.585317285078
 30
0.0
 11
2923.237015814363
 21
2770.785317285078
 31
0.0
  0
LINE
  5
2E2
330
6C
100
AcDbEntity
  8
Widoczne (ISO)
100
AcDbLine
 10
2923.237015814363
 20
2770.785317285078
 30
0.0
 11
2923.237015814363
 21
2693.385317285078
 31
0.0
  0
LINE
  5
2E3
330
6C
100
AcDbEntity
  8
Widoczne (ISO)
100
AcDbLine
 10
2923.237015814363
 20
2693.385317285078
 30
0.0
 11
2917.927015814362
 21
2693.385317285078
 31
0.0
  0
LINE
  5
2E4
330
6C
100
AcDbEntity
  8
Widoczne (ISO)
100
AcDbLine
 10
2917.927015814361
 20
2693.385317285078
 30
0.0
 11
2917.927015814361
 21
2684.385597727414
 31
0.0
  0
ARC
  5
2E5
330
6C
100
AcDbEntity
  8
Widoczne (ISO)
100
AcDbCircle
 10
2917.958788660684
 20
2686.185317284901
 30
0.0
 40
1.799999999823239
100
AcDbArc
 50
268.9885863631479
 51
270.000000000061
  0
LINE
  5
2E6
330
6C
100
AcDbEntity
  8
Widoczne (ISO)
100
AcDbLine
 10
2917.958788660687
 20
2684.385317285078
 30
0.0
 11
2940.755242968036
 21
2684.385317285078
 31
0.0
  0
ARC
  5
2E7
330
6C
100
AcDbEntity
  8
Widoczne (ISO)
100
AcDbCircle
 10
2940.755242968038
 20
2686.185317284927
 30
0.0
 40
1.79999999984853
100
AcDbArc
 50
269.9999999999389
 51
271.0114136368379
  0
LINE
  5
2E8
330
6C
100
AcDbEntity
  8
Widoczne (ISO)
100
AcDbLine
 10
2940.787015814361
 20
2684.385597727414
 30
0.0
 11
2940.787015814361
 21
2693.385317285078
 31
0.0
  0
LINE
  5
2E9
330
6C
100
AcDbEntity
  8
Widoczne (ISO)
100
AcDbLine
 10
2940.787015814361
 20
2693.385317285078
 30
0.0
 11
2935.477015814361
 21
2693.385317285078
 31
0.0
  0
LINE
  5
2EA
330
6C
100
AcDbEntity
  8
Widoczne (ISO)
100
AcDbLine
 10
2935.477015814361
 20
2693.385317285078
 30
0.0
 11
2935.477015814361
 21
2770.785317285078
 31
0.0
  0
LINE
  5
2EB
330
6C
100
AcDbEntity
  8
Widoczne (ISO)
100
AcDbLine
 10
2935.477015814361
 20
2770.785317285078
 30
0.0
 11
2934.757015814362
 21
2772.585317285078
 31
0.0
  0
LINE
  5
2EC
330
6C
100
AcDbEntity
  8
Widoczne (ISO)
100
AcDbLine
 10
2934.757015814362
 20
2772.585317285078
 30
0.0
 11
2934.757015814362
 21
2900.032242924206
 31
0.0
  0
LINE
  5
2ED
330
6C
100
AcDbEntity
  8
Widoczne (ISO)
100
AcDbLine
 10
2934.757015814362
 20
2900.032242924206
 30
0.0
 11
2929.357015814361
 21
2909.385317285078
 31
0.0
  0
LINE
  5
2EE
330
6C
100
AcDbEntity
  8
Widoczne (ISO)
100
AcDbLine
 10
884.5570158143521
 20
2909.385317285078
 30
0.0
 11
879.1570158143523
 21
2900.032242924206
 31
0.0
  0
LINE
  5
2EF
330
6C
100
AcDbEntity
  8
Widoczne (ISO)
100
AcDbLine
 10
879.1570158143526
 20
2900.032242924206
 30
0.0
 11
879.1570158143523
 21
2772.585317285078
 31
0.0
  0
LINE
  5
2F0
330
6C
100
AcDbEntity
  8
Widoczne (ISO)
100
AcDbLine
 10
879.1570158143521
 20
2772.585317285078
 30
0.0
 11
878.4370158143522
 21
2770.785317285078
 31
0.0
  0
LINE
  5
2F1
330
6C
100
AcDbEntity
  8
Widoczne (ISO)
100
AcDbLine
 10
878.4370158143525
 20
2770.785317285078
 30
0.0
 11
878.4370158143525
 21
2693.385317285078
 31
0.0
  0
LINE
  5
2F2
330
6C
100
AcDbEntity
  8
Widoczne (ISO)
100
AcDbLine
 10
878.4370158143524
 20
2693.385317285078
 30
0.0
 11
873.1270158143527
 21
2693.385317285078
 31
0.0
  0
LINE
  5
2F3
330
6C
100
AcDbEntity
  8
Widoczne (ISO)
100
AcDbLine
 10
873.1270158143527
 20
2693.385317285078
 30
0.0
 11
873.1270158143527
 21
2684.385597727414
 31
0.0
  0
ARC
  5
2F4
330
6C
100
AcDbEntity
  8
Widoczne (ISO)
100
AcDbCircle
 10
873.1587886606751
 20
2686.185317284901
 30
0.0
 40
1.799999999823239
100
AcDbArc
 50
268.9885863631529
 51
270.000000000061
  0
LINE
  5
2F5
330
6C
100
AcDbEntity
  8
Widoczne (ISO)
100
AcDbLine
 10
873.1587886606771
 20
2684.385317285078
 30
0.0
 11
895.9552429680272
 21
2684.385317285078
 31
0.0
  0
ARC
  5
2F6
330
6C
100
AcDbEntity
  8
Widoczne (ISO)
100
AcDbCircle
 10
895.9552429680288
 20
2686.185317284927
 30
0.0
 40
1.79999999984853
100
AcDbArc
 50
269.9999999999389
 51
271.011413636843
  0
LINE
  5
2F7
330
6C
100
AcDbEntity
  8
Widoczne (ISO)
100
AcDbLine
 10
895.9870158143527
 20
2684.385597727414
 30
0.0
 11
895.9870158143527
 21
2693.385317285078
 31
0.0
  0
LINE
  5
2F8
330
6C
100
AcDbEntity
  8
Widoczne (ISO)
100
AcDbLine
 10
895.9870158143527
 20
2693.385317285078
 30
0.0
 11
890.6770158143524
 21
2693.385317285078
 31
0.0
  0
LINE
  5
2F9
330
6C
100
AcDbEntity
  8
Widoczne (ISO)
100
AcDbLine
 10
890.6770158143523
 20
2693.385317285078
 30
0.0
 11
890.6770158143523
 21
2770.785317285078
 31
0.0
  0
LINE
  5
2FA
330
6C
100
AcDbEntity
  8
Widoczne (ISO)
100
AcDbLine
 10
890.6770158143524
 20
2770.785317285078
 30
0.0
 11
889.9570158143523
 21
2772.585317285078
 31
0.0
  0
LINE
  5
2FB
330
6C
100
AcDbEntity
  8
Widoczne (ISO)
100
AcDbLine
 10
889.9570158143523
 20
2772.585317285078
 30
0.0
 11
889.9570158143525
 21
2900.032242924206
 31
0.0
  0
LINE
  5
2FC
330
6C
100
AcDbEntity
  8
Widoczne (ISO)
100
AcDbLine
 10
889.9570158143525
 20
2900.032242924206
 30
0.0
 11
884.5570158143525
 21
2909.385317285078
 31
0.0
  0
LINE
  5
2FD
330
6C
100
AcDbEntity
  8
Widoczne (ISO)
100
AcDbLine
 10
900.7570158143519
 20
2610.894148460535
 30
0.0
 11
895.6658469898087
 21
2615.985317285078
 31
0.0
  0
LINE
  5
2FE
330
6C
100
AcDbEntity
  8
Widoczne (ISO)
100
AcDbLine
 10
900.7570158143519
 20
2610.894148460535
 30
0.0
 11
915.157015814352
 21
2610.894148460535
 31
0.0
  0
LINE
  5
2FF
330
6C
100
AcDbEntity
  8
Widoczne (ISO)
100
AcDbLine
 10
915.157015814352
 20
2610.894148460535
 30
0.0
 11
915.157015814352
 21
2615.985317285078
 31
0.0
  0
LINE
  5
300
330
6C
100
AcDbEntity
  8
Widoczne (ISO)
100
AcDbLine
 10
900.7570158143519
 20
2615.985317285078
 30
0.0
 11
900.7570158143519
 21
2610.894148460535
 31
0.0
  0
LINE
  5
301
330
6C
100
AcDbEntity
  8
Widoczne (ISO)
100
AcDbLine
 10
920.2481846388952
 20
2615.985317285078
 30
0.0
 11
915.157015814352
 21
2610.894148460535
 31
0.0
  0
LINE
  5
302
330
6C
100
AcDbEntity
  8
Widoczne (ISO)
100
AcDbLine
 10
958.6658469898091
 20
2522.385317285078
 30
0.0
 11
955.065846989809
 21
2525.985317285079
 31
0.0
  0
LINE
  5
303
330
6C
100
AcDbEntity
  8
Widoczne (ISO)
100
AcDbLine
 10
955.065846989809
 20
2540.385317285078
 30
0.0
 11
955.065846989809
 21
2525.985317285079
 31
0.0
  0
LINE
  5
304
330
6C
100
AcDbEntity
  8
Widoczne (ISO)
100
AcDbLine
 10
955.0658469898094
 20
2525.985317285079
 30
0.0
 11
960.157015814352
 21
2525.985317285079
 31
0.0
  0
LINE
  5
305
330
6C
100
AcDbEntity
  8
Widoczne (ISO)
100
AcDbLine
 10
960.157015814352
 20
2540.385317285078
 30
0.0
 11
955.065846989809
 21
2540.385317285078
 31
0.0
  0
LINE
  5
306
330
6C
100
AcDbEntity
  8
Widoczne (ISO)
100
AcDbLine
 10
955.065846989809
 20
2540.385317285078
 30
0.0
 11
958.6658469898088
 21
2543.985317285078
 31
0.0
  0
HATCH
  5
320
330
6C
100
AcDbEntity
  8
Kreskowanie (ISO)
100
AcDbHatch
 10
0.0
 20
0.0
 30
0.0
210
0.0
220
0.0
230
1.0
  2
ANSI31
 70
     0
 71
     0
 91
        2
 92
        1
 93
       12
 72
     1
 10
574.9570158143592
 20
2698.785317285079
 11
833.9770158143524
 21
2698.785317285079
 72
     1
 10
833.9770158143524
 20
2698.785317285079
 11
848.5570158143524
 21
2698.785317285079
 72
     1
 10
848.5570158143524
 20
2698.785317285079
 11
875.3095158143526
 21
2698.785317285079
 72
     1
 10
875.3095158143526
 20
2698.785317285079
 11
877.1095158143525
 21
2698.785317285079
 72
     1
 10
877.1095158143522
 20
2698.785317285079
 11
878.4370158143522
 21
2698.785317285079
 72
     1
 10
878.4370158143524
 20
2698.785317285079
 11
890.6770158143517
 21
2698.785317285079
 72
     1
 10
890.6770158143517
 20
2698.785317285079
 11
892.0045158143523
 21
2698.785317285079
 72
     1
 10
892.0045158143521
 20
2698.785317285079
 11
893.8045158143516
 21
2698.785317285079
 72
     1
 10
893.8045158143516
 20
2698.785317285079
 11
1024.957015814359
 21
2698.785317285079
 72
     1
 10
1024.957015814359
 20
2698.785317285079
 11
1024.957015814359
 21
2968.785317285079
 72
     1
 10
1024.957015814359
 20
2968.785317285079
 11
574.957015814359
 21
2968.785317285079
 72
     1
 10
574.9570158143592
 20
2968.785317285079
 11
574.9570158143592
 21
2698.785317285079
 97
        0
 92
        1
 93
       12
 72
     1
 10
2788.95701581436
 20
2698.785317285079
 11
2920.109515814362
 21
2698.785317285079
 72
     1
 10
2920.109515814363
 20
2698.785317285079
 11
2921.909515814363
 21
2698.785317285079
 72
     1
 10
2921.909515814363
 20
2698.785317285079
 11
2923.237015814363
 21
2698.785317285079
 72
     1
 10
2923.237015814363
 20
2698.785317285079
 11
2935.477015814362
 21
2698.785317285079
 72
     1
 10
2935.477015814362
 20
2698.785317285079
 11
2936.804515814362
 21
2698.785317285079
 72
     1
 10
2936.804515814362
 20
2698.785317285079
 11
2938.604515814362
 21
2698.785317285079
 72
     1
 10
2938.604515814362
 20
2698.785317285079
 11
2965.357015814362
 21
2698.785317285079
 72
     1
 10
2965.357015814361
 20
2698.785317285079
 11
2979.937015814361
 21
2698.785317285079
 72
     1
 10
2979.937015814361
 20
2698.785317285079
 11
3238.95701581436
 21
2698.785317285079
 72
     1
 10
3238.957015814361
 20
2698.785317285079
 11
3238.957015814361
 21
2968.785317285079
 72
     1
 10
3238.957015814361
 20
2968.785317285079
 11
2788.95701581436
 21
2968.785317285079
 72
     1
 10
2788.95701581436
 20
2968.785317285079
 11
2788.95701581436
 21
2698.785317285079
 97
        0
 75
     0
 76
     1
 52
0.0
 41
457.2
 77
     0
 78
     1
 53
45.0
 43
0.0
 44
0.0
 45
-40.41115254481119
 46
40.41115254481119
 79
     0
 98
        1
 10
1906.95701581436
 20
2804.106644880164
  0
HATCH
  5
341
330
6C
100
AcDbEntity
  8
Kreskowanie (ISO)
100
AcDbHatch
 10
0.0
 20
0.0
 30
0.0
210
0.0
220
0.0
230
1.0
  2
ANSI31
 70
     0
 71
     0
 91
        2
 92
        1
 93
       18
 72
     1
 10
1039.357015814352
 20
2698.785317285079
 11
1039.357015814352
 21
2696.085317285078
 72
     1
 10
1039.357015814352
 20
2696.085317285078
 11
1042.057015814352
 21
2696.085317285078
 72
     1
 10
1042.057015814352
 20
2696.085317285078
 11
1053.937015814352
 21
2696.085317285078
 72
     3
 10
1053.937015814352
 20
2691.765317285078
 11
-0.000000000000032
 21
4.319999999999995
 40
1.0
 50
0.0000000000004071
 51
90.00000000000056
 73
     0
 72
     1
 10
1058.257015814352
 20
2691.765317285078
 11
1058.257015814352
 21
2633.805317285078
 72
     3
 10
1053.937015814352
 20
2633.805317285078
 11
4.31999999999997
 21
0.000000000000022
 40
1.0
 50
0.0000000000003053
 51
90.00000000000026
 73
     0
 72
     1
 10
1053.937015814352
 20
2629.485317285078
 11
903.907015814352
 21
2629.485317285078
 72
     1
 10
903.907015814352
 20
2629.485317285078
 11
903.907015814352
 21
2626.785317285078
 72
     1
 10
903.907015814352
 20
2626.785317285078
 11
907.0570158143524
 21
2626.785317285078
 72
     1
 10
907.0570158143524
 20
2626.785317285078
 11
992.9609469542219
 21
2626.785317285078
 72
     1
 10
992.9609469542215
 20
2626.785317285078
 11
1004.473859214653
 21
2626.785317285078
 72
     1
 10
1004.473859214653
 20
2626.785317285078
 11
1027.343058765052
 21
2626.785317285078
 72
     1
 10
1027.343058765053
 20
2626.785317285078
 11
1040.640596300455
 21
2626.785317285078
 72
     1
 10
1040.640596300455
 20
2626.785317285078
 11
1053.937015814352
 21
2626.785317285078
 72
     3
 10
1053.937015814352
 20
2633.805317285078
 11
0.0
 21
-7.020000000000002
 40
1.0
 50
0.0
 51
90.0
 73
     1
 72
     1
 10
1060.957015814352
 20
2633.805317285078
 11
1060.957015814352
 21
2691.765317285078
 72
     3
 10
1053.937015814352
 20
2691.765317285078
 11
7.019999999999977
 21
-0.000000000000016
 40
1.0
 50
0.0
 51
90.0000000000001
 73
     1
 72
     1
 10
1053.937015814352
 20
2698.785317285079
 11
1039.357015814352
 21
2698.785317285079
 97
        0
 92
        1
 93
       14
 72
     3
 10
833.9770158143522
 20
2691.765317285078
 11
-0.000000000000002
 21
7.020000000000012
 40
1.0
 50
0.0
 51
89.99999999999984
 73
     1
 72
     1
 10
826.9570158143521
 20
2691.765317285078
 11
826.9570158143521
 21
2633.805317285078
 72
     3
 10
833.9770158143522
 20
2633.805317285078
 11
-7.020000000000001
 21
0.000000000000002
 40
1.0
 50
0.0000000000002773
 51
90.0
 73
     1
 72
     1
 10
833.9770158143522
 20
2626.785317285078
 11
862.0570158143522
 21
2626.785317285078
 72
     1
 10
862.0570158143522
 20
2626.785317285078
 11
865.2070158143521
 21
2626.785317285078
 72
     1
 10
865.2070158143521
 20
2626.785317285078
 11
865.2070158143521
 21
2629.485317285078
 72
     1
 10
865.2070158143521
 20
2629.485317285078
 11
833.9770158143521
 21
2629.485317285078
 72
     3
 10
833.9770158143522
 20
2633.805317285078
 11
0.0
 21
-4.320000000000002
 40
1.0
 50
0.0
 51
90.0
 73
     0
 72
     1
 10
829.6570158143522
 20
2633.805317285078
 11
829.6570158143522
 21
2691.765317285078
 72
     3
 10
833.9770158143522
 20
2691.765317285078
 11
-4.319999999999998
 21
0.0
 40
1.0
 50
0.0000000000002036
 51
90.0
 73
     0
 72
     1
 10
833.9770158143522
 20
2696.085317285078
 11
837.7570158143521
 21
2696.085317285078
 72
     1
 10
837.757015814352
 20
2696.085317285078
 11
848.5570158143522
 21
2696.085317285078
 72
     1
 10
848.5570158143524
 20
2696.085317285078
 11
848.5570158143524
 21
2698.785317285079
 72
     1
 10
848.5570158143524
 20
2698.785317285079
 11
833.9770158143522
 21
2698.785317285079
 97
        0
 75
     0
 76
     1
 52
90.0
 41
457.2
 77
     0
 78
     1
 53
135.0
 43
0.0
 44
0.0
 45
-40.41115254481119
 46
-40.41115254481119
 79
     0
 98
        1
 10
1906.95701581436
 20
2804.106644880164
  0
HATCH
  5
362
330
6C
100
AcDbEntity
  8
Kreskowanie (ISO)
100
AcDbHatch
 10
0.0
 20
0.0
 30
0.0
210
0.0
220
0.0
230
1.0
  2
ANSI31
 70
     0
 71
     0
 91
        2
 92
        1
 93
       14
 72
     3
 10
2979.937015814361
 20
2633.805317285078
 11
0.0
 21
-7.020000000000002
 40
1.0
 50
0.0
 51
90.0
 73
     1
 72
     1
 10
2986.957015814362
 20
2633.805317285078
 11
2986.957015814362
 21
2691.765317285078
 72
     3
 10
2979.937015814361
 20
2691.765317285078
 11
7.019999999999977
 21
-0.000000000000016
 40
1.0
 50
0.0
 51
90.0000000000001
 73
     1
 72
     1
 10
2979.937015814361
 20
2698.785317285079
 11
2965.357015814361
 21
2698.785317285079
 72
     1
 10
2965.357015814361
 20
2698.785317285079
 11
2965.357015814361
 21
2696.085317285078
 72
     1
 10
2965.357015814361
 20
2696.085317285078
 11
2976.157015814361
 21
2696.085317285078
 72
     1
 10
2976.157015814362
 20
2696.085317285078
 11
2979.937015814362
 21
2696.085317285078
 72
     3
 10
2979.937015814361
 20
2691.765317285078
 11
-0.000000000000032
 21
4.319999999999995
 40
1.0
 50
0.0000000000004071
 51
90.00000000000056
 73
     0
 72
     1
 10
2984.257015814361
 20
2691.765317285078
 11
2984.257015814361
 21
2633.805317285078
 72
     3
 10
2979.937015814361
 20
2633.805317285078
 11
4.31999999999997
 21
0.000000000000022
 40
1.0
 50
0.0000000000003053
 51
90.00000000000026
 73
     0
 72
     1
 10
2979.937015814361
 20
2629.485317285078
 11
2948.707015814361
 21
2629.485317285078
 72
     1
 10
2948.707015814362
 20
2629.485317285078
 11
2948.707015814362
 21
2626.785317285078
 72
     1
 10
2948.707015814362
 20
2626.785317285078
 11
2951.857015814361
 21
2626.785317285078
 72
     1
 10
2951.857015814361
 20
2626.785317285078
 11
2979.937015814362
 21
2626.785317285078
 97
        0
 92
        1
 93
       18
 72
     1
 10
2774.557015814361
 20
2696.085317285078
 11
2774.557015814361
 21
2698.785317285079
 72
     1
 10
2774.557015814361
 20
2698.785317285079
 11
2759.977015814362
 21
2698.785317285079
 72
     3
 10
2759.977015814361
 20
2691.765317285078
 11
-0.000000000000002
 21
7.020000000000012
 40
1.0
 50
0.0
 51
89.99999999999984
 73
     1
 72
     1
 10
2752.957015814361
 20
2691.765317285078
 11
2752.957015814361
 21
2633.805317285078
 72
     3
 10
2759.977015814361
 20
2633.805317285078
 11
-7.020000000000001
 21
0.000000000000002
 40
1.0
 50
0.0000000000002773
 51
90.0
 73
     1
 72
     1
 10
2759.977015814361
 20
2626.785317285078
 11
2773.273435328267
 21
2626.785317285078
 72
     1
 10
2773.273435328267
 20
2626.785317285078
 11
2786.570972863643
 21
2626.785317285078
 72
     1
 10
2786.570972863643
 20
2626.785317285078
 11
2809.440172414073
 21
2626.785317285078
 72
     1
 10
2809.440172414073
 20
2626.785317285078
 11
2820.953084674471
 21
2626.785317285078
 72
     1
 10
2820.953084674471
 20
2626.785317285078
 11
2906.857015814361
 21
2626.785317285078
 72
     1
 10
2906.857015814361
 20
2626.785317285078
 11
2910.007015814361
 21
2626.785317285078
 72
     1
 10
2910.007015814361
 20
2626.785317285078
 11
2910.007015814361
 21
2629.485317285078
 72
     1
 10
2910.007015814361
 20
2629.485317285078
 11
2759.977015814361
 21
2629.485317285078
 72
     3
 10
2759.977015814361
 20
2633.805317285078
 11
0.0
 21
-4.320000000000002
 40
1.0
 50
0.0
 51
90.0
 73
     0
 72
     1
 10
2755.657015814362
 20
2633.805317285078
 11
2755.657015814362
 21
2691.765317285078
 72
     3
 10
2759.977015814361
 20
2691.765317285078
 11
-4.319999999999998
 21
0.0
 40
1.0
 50
0.0000000000002036
 51
90.0
 73
     0
 72
     1
 10
2759.977015814361
 20
2696.085317285078
 11
2771.857015814362
 21
2696.085317285078
 72
     1
 10
2771.857015814362
 20
2696.085317285078
 11
2774.557015814361
 21
2696.085317285078
 97
        0
 75
     0
 76
     1
 52
15.0
 41
457.2
 77
     0
 78
     1
 53
60.0
 43
0.0
 44
0.0
 45
-49.49335182628066
 46
28.57500000000001
 79
     0
 98
        1
 10
1906.95701581436
 20
2804.106644880164
  0
HATCH
  5
369
330
6C
100
AcDbEntity
  8
Kreskowanie (ISO)
100
AcDbHatch
 10
0.0
 20
0.0
 30
0.0
210
0.0
220
0.0
230
1.0
  2
ANSI31
 70
     0
 71
     0
 91
        1
 92
        1
 93
        6
 72
     1
 10
2951.857015814361
 20
2626.785317285078
 11
2948.707015814362
 21
2626.785317285078
 72
     1
 10
2948.707015814362
 20
2626.785317285078
 11
2910.007015814361
 21
2626.785317285078
 72
     1
 10
2910.007015814361
 20
2626.785317285078
 11
2906.857015814361
 21
2626.785317285078
 72
     3
 10
2910.457015814361
 20
2626.785317285078
 11
-3.600000000000018
 21
-0.0000000000000959
 40
1.0
 50
0.0
 51
89.99999999999849
 73
     1
 72
     1
 10
2910.457015814361
 20
2623.185317285078
 11
2948.257015814361
 21
2623.185317285078
 72
     3
 10
2948.257015814361
 20
2626.785317285078
 11
0.000000000000012
 21
-3.600000000000003
 40
1.0
 50
0.0000000000018447
 51
89.99999999999827
 73
     1
 97
        0
 75
     0
 76
     1
 52
75.0
 41
457.2
 77
     0
 78
     1
 53
120.0
 43
0.0
 44
0.0
 45
-49.49335182628066
 46
-28.575
 79
     0
 98
        1
 10
1906.95701581436
 20
2804.106644880164
  0
HATCH
  5
370
330
6C
100
AcDbEntity
  8
Kreskowanie (ISO)
100
AcDbHatch
 10
0.0
 20
0.0
 30
0.0
210
0.0
220
0.0
230
1.0
  2
ANSI31
 70
     0
 71
     0
 91
        1
 92
        1
 93
        6
 72
     1
 10
907.0570158143524
 20
2626.785317285078
 11
903.907015814352
 21
2626.785317285078
 72
     1
 10
903.907015814352
 20
2626.785317285078
 11
865.2070158143521
 21
2626.785317285078
 72
     1
 10
865.2070158143521
 20
2626.785317285078
 11
862.0570158143522
 21
2626.785317285078
 72
     3
 10
865.6570158143521
 20
2626.785317285078
 11
-3.600000000000018
 21
-0.0000000000000959
 40
1.0
 50
0.0
 51
89.99999999999849
 73
     1
 72
     1
 10
865.6570158143521
 20
2623.185317285078
 11
903.4570158143523
 21
2623.185317285078
 72
     3
 10
903.4570158143523
 20
2626.785317285078
 11
0.000000000000012
 21
-3.600000000000003
 40
1.0
 50
0.0000000000018447
 51
89.99999999999827
 73
     1
 97
        0
 75
     0
 76
     1
 52
-15.0
 41
457.2
 77
     0
 78
     1
 53
30.0
 43
0.0
 44
0.0
 45
-28.575
 46
49.49335182628066
 79
     0
 98
        1
 10
1906.95701581436
 20
2804.106644880164
  0
HATCH
  5
386
330
6C
100
AcDbEntity
  8
Kreskowanie (ISO)
100
AcDbHatch
 10
0.0
 20
0.0
 30
0.0
210
0.0
220
0.0
230
1.0
  2
ANSI31
 70
     0
 71
     0
 91
        2
 92
        1
 93
        8
 72
     1
 10
874.6570158143523
 20
2693.385317285078
 11
874.6570158143523
 21
2696.085317285078
 72
     1
 10
874.6570158143523
 20
2696.085317285078
 11
874.4770158143522
 21
2696.085317285078
 72
     1
 10
874.4770158143522
 20
2696.085317285078
 11
872.6770158143521
 21
2696.085317285078
 72
     1
 10
872.6770158143521
 20
2696.085317285078
 11
848.557015814352
 21
2696.085317285078
 72
     1
 10
848.557015814352
 20
2696.085317285078
 11
837.7570158143521
 21
2696.085317285078
 72
     1
 10
837.7570158143523
 20
2696.085317285078
 11
837.7570158143523
 21
2693.385317285078
 72
     1
 10
837.7570158143523
 20
2693.385317285078
 11
873.1270158143523
 21
2693.385317285078
 72
     1
 10
873.1270158143523
 20
2693.385317285078
 11
874.6570158143521
 21
2693.385317285078
 97
        0
 92
        1
 93
       13
 72
     1
 10
1033.057015814352
 20
2689.065317285078
 11
1033.057015814352
 21
2668.185317285078
 72
     1
 10
1033.057015814352
 20
2668.185317285078
 11
1035.037015814352
 21
2668.185317285078
 72
     1
 10
1035.037015814352
 20
2668.185317285078
 11
1035.757015814352
 21
2668.185317285078
 72
     1
 10
1035.757015814352
 20
2668.185317285078
 11
1035.757015814352
 21
2668.245739841247
 72
     1
 10
1035.757015814352
 20
2668.245739841247
 11
1035.757015814352
 21
2689.065317285078
 72
     3
 10
1028.737015814352
 20
2689.065317285078
 11
7.020000000000012
 21
0.0000000000000004
 40
1.0
 50
0.0
 51
90.0
 73
     1
 72
     1
 10
1028.737015814352
 20
2696.085317285078
 11
896.4370158143522
 21
2696.085317285078
 72
     1
 10
896.4370158143522
 20
2696.085317285078
 11
894.6370158143521
 21
2696.085317285078
 72
     1
 10
894.6370158143521
 20
2696.085317285078
 11
894.457015814352
 21
2696.085317285078
 72
     1
 10
894.457015814352
 20
2696.085317285078
 11
894.457015814352
 21
2693.385317285078
 72
     1
 10
894.457015814352
 20
2693.385317285078
 11
895.9870158143523
 21
2693.385317285078
 72
     1
 10
895.9870158143523
 20
2693.385317285078
 11
1028.737015814352
 21
2693.385317285078
 72
     3
 10
1028.737015814352
 20
2689.065317285078
 11
-0.0000000000000307
 21
4.319999999999978
 40
1.0
 50
0.0000000000004071
 51
90.00000000000078
 73
     0
 97
        0
 75
     0
 76
     1
 52
105.0
 41
457.2
 77
     0
 78
     1
 53
150.0
 43
0.0
 44
0.0
 45
-28.575
 46
-49.49335182628068
 79
     0
 98
        1
 10
1906.95701581436
 20
2804.106644880164
  0
HATCH
  5
391
330
6C
100
AcDbEntity
  8
Kreskowanie (ISO)
100
AcDbHatch
 10
0.0
 20
0.0
 30
0.0
210
0.0
220
0.0
230
1.0
  2
ANSI31
 70
     0
 71
     0
 91
        1
 92
        1
 93
       10
 72
     1
 10
1006.057015814352
 20
2665.485317285078
 11
1035.037015814352
 21
2665.485317285078
 72
     3
 10
1035.037015814352
 20
2672.505317285078
 11
-0.0000000000000031
 21
-7.020000000000004
 40
1.0
 50
0.0
 51
90.0
 73
     1
 72
     1
 10
1042.057015814352
 20
2672.505317285078
 11
1042.057015814352
 21
2696.085317285078
 72
     1
 10
1042.057015814352
 20
2696.085317285078
 11
1039.357015814352
 21
2696.085317285078
 72
     1
 10
1039.357015814352
 20
2696.085317285078
 11
1039.357015814352
 21
2672.505317285078
 72
     3
 10
1035.037015814352
 20
2672.505317285078
 11
4.320000000000002
 21
0.0000000000000007
 40
1.0
 50
0.0
 51
80.40593177313802
 73
     0
 72
     3
 10
1035.037015814352
 20
2672.505317285078
 11
0.7200000000001478
 21
-4.259577443831733
 40
1.0
 50
0.000000000000458
 51
9.594068226862367
 73
     0
 72
     1
 10
1035.037015814352
 20
2668.185317285078
 11
1033.057015814352
 21
2668.185317285078
 72
     1
 10
1033.057015814352
 20
2668.185317285078
 11
1006.057015814352
 21
2668.185317285078
 72
     1
 10
1006.057015814352
 20
2668.185317285078
 11
1006.057015814352
 21
2665.485317285078
 97
        0
 75
     0
 76
     1
 52
0.0
 41
457.2
 77
     0
 78
     1
 53
45.0
 43
0.0
 44
0.0
 45
-40.41115254481119
 46
40.41115254481119
 79
     0
 98
        1
 10
1906.95701581436
 20
2804.106644880164
  0
HATCH
  5
3A7
330
6C
100
AcDbEntity
  8
Kreskowanie (ISO)
100
AcDbHatch
 10
0.0
 20
0.0
 30
0.0
210
0.0
220
0.0
230
1.0
  2
ANSI31
 70
     0
 71
     0
 91
        2
 92
        1
 93
        8
 72
     1
 10
2939.257015814361
 20
2696.085317285078
 11
2939.257015814361
 21
2693.385317285078
 72
     1
 10
2939.257015814361
 20
2693.385317285078
 11
2940.787015814361
 21
2693.385317285078
 72
     1
 10
2940.787015814361
 20
2693.385317285078
 11
2976.157015814361
 21
2693.385317285078
 72
     1
 10
2976.157015814362
 20
2693.385317285078
 11
2976.157015814362
 21
2696.085317285078
 72
     1
 10
2976.157015814362
 20
2696.085317285078
 11
2965.357015814362
 21
2696.085317285078
 72
     1
 10
2965.357015814361
 20
2696.085317285078
 11
2941.237015814362
 21
2696.085317285078
 72
     1
 10
2941.237015814362
 20
2696.085317285078
 11
2939.437015814362
 21
2696.085317285078
 72
     1
 10
2939.437015814362
 20
2696.085317285078
 11
2939.257015814363
 21
2696.085317285078
 97
        0
 92
        1
 93
       13
 72
     1
 10
2780.857015814362
 20
2668.185317285078
 11
2780.857015814362
 21
2689.065317285078
 72
     3
 10
2785.177015814362
 20
2689.065317285078
 11
-4.31999999999997
 21
-0.0000000000000245
 40
1.0
 50
-0.0000000000001018
 51
90.00000000000026
 73
     0
 72
     1
 10
2785.177015814362
 20
2693.385317285078
 11
2917.927015814362
 21
2693.385317285078
 72
     1
 10
2917.927015814362
 20
2693.385317285078
 11
2919.457015814362
 21
2693.385317285078
 72
     1
 10
2919.457015814362
 20
2693.385317285078
 11
2919.457015814362
 21
2696.085317285078
 72
     1
 10
2919.457015814362
 20
2696.085317285078
 11
2919.277015814362
 21
2696.085317285078
 72
     1
 10
2919.277015814362
 20
2696.085317285078
 11
2917.477015814363
 21
2696.085317285078
 72
     1
 10
2917.477015814363
 20
2696.085317285078
 11
2785.177015814362
 21
2696.085317285078
 72
     3
 10
2785.177015814362
 20
2689.065317285078
 11
0.0
 21
7.020000000000004
 40
1.0
 50
0.0
 51
90.0
 73
     1
 72
     1
 10
2778.157015814362
 20
2689.065317285078
 11
2778.157015814362
 21
2668.245739841247
 72
     1
 10
2778.157015814362
 20
2668.245739841247
 11
2778.157015814362
 21
2668.185317285078
 72
     1
 10
2778.157015814362
 20
2668.185317285078
 11
2778.877015814363
 21
2668.185317285078
 72
     1
 10
2778.877015814362
 20
2668.185317285078
 11
2780.857015814362
 21
2668.185317285078
 97
        0
 75
     0
 76
     1
 52
90.0
 41
457.2
 77
     0
 78
     1
 53
135.0
 43
0.0
 44
0.0
 45
-40.41115254481119
 46
-40.41115254481119
 79
     0
 98
        1
 10
1906.95701581436
 20
2804.106644880164
  0
HATCH
  5
3B2
330
6C
100
AcDbEntity
  8
Kreskowanie (ISO)
100
AcDbHatch
 10
0.0
 20
0.0
 30
0.0
210
0.0
220
0.0
230
1.0
  2
ANSI31
 70
     0
 71
     0
 91
        1
 92
        1
 93
       10
 72
     1
 10
2778.877015814362
 20
2665.485317285078
 11
2807.857015814362
 21
2665.485317285078
 72
     1
 10
2807.857015814362
 20
2665.485317285078
 11
2807.857015814362
 21
2668.185317285078
 72
     1
 10
2807.857015814362
 20
2668.185317285078
 11
2780.857015814362
 21
2668.185317285078
 72
     1
 10
2780.857015814362
 20
2668.185317285078
 11
2778.877015814362
 21
2668.185317285078
 72
     3
 10
2778.877015814362
 20
2672.505317285078
 11
-0.000000000000007
 21
-4.32000000000008
 40
1.0
 50
-0.0000000000001018
 51
9.594068226866893
 73
     0
 72
     3
 10
2778.877015814362
 20
2672.505317285078
 11
-0.7200000000005283
 21
-4.25957744383164
 40
1.0
 50
-0.0000000000004071
 51
80.40593177313244
 73
     0
 72
     1
 10
2774.557015814363
 20
2672.505317285078
 11
2774.557015814363
 21
2696.085317285078
 72
     1
 10
2774.557015814363
 20
2696.085317285078
 11
2771.857015814362
 21
2696.085317285078
 72
     1
 10
2771.857015814362
 20
2696.085317285078
 11
2771.857015814362
 21
2672.505317285078
 72
     3
 10
2778.877015814362
 20
2672.505317285078
 11
-7.020000000000004
 21
0.000000000000003
 40
1.0
 50
0.0000000000000245
 51
90.0
 73
     1
 97
        0
 75
     0
 76
     1
 52
15.0
 41
457.2
 77
     0
 78
     1
 53
60.0
 43
0.0
 44
0.0
 45
-49.49335182628066
 46
28.57500000000001
 79
     0
 98
        1
 10
1906.95701581436
 20
2804.106644880164
  0
HATCH
  5
3DB
330
6C
100
AcDbEntity
  8
Kreskowanie (ISO)
100
AcDbHatch
 10
0.0
 20
0.0
 30
0.0
210
0.0
220
0.0
230
1.0
  2
ANSI31
 70
     0
 71
     0
 91
        1
 92
        1
 93
       40
 72
     3
 10
974.7010158143552
 20
2486.889317285078
 11
-0.0000000000012924
 21
-2.304000000000002
 40
1.0
 50
337.9756871630024
 51
360.0000000000004
 73
     1
 72
     1
 10
974.7010158143538
 20
2484.585317285078
 11
976.1410158143531
 21
2484.585317285078
 72
     1
 10
976.1410158143531
 20
2484.585317285078
 11
1008.397015814352
 21
2484.585317285078
 72
     1
 10
1008.397015814352
 20
2484.585317285078
 11
2805.517015814355
 21
2484.585317285074
 72
     1
 10
2805.517015814355
 20
2484.585317285074
 11
2837.773015814355
 21
2484.585317285074
 72
     1
 10
2837.773015814355
 20
2484.585317285073
 11
2839.213015814356
 21
2484.585317285073
 72
     3
 10
2839.213015814356
 20
2486.889317285073
 11
2.304000000000002
 21
0.0000000000001549
 40
1.0
 50
269.9999999999961
 51
359.9999999999993
 73
     1
 72
     1
 10
2841.517015814356
 20
2486.889317285073
 11
2841.517015814356
 21
2488.329317285073
 72
     1
 10
2841.517015814356
 20
2488.329317285073
 11
2841.517015814356
 21
2584.161317285072
 72
     1
 10
2841.517015814356
 20
2584.161317285072
 11
2841.517015814356
 21
2585.601317285073
 72
     3
 10
2839.21301581436
 20
2585.601317285075
 11
2.135865164279353
 21
0.8639999999988125
 40
1.0
 50
337.9756871629198
 51
359.9999999999994
 73
     1
 72
     3
 10
2839.213015814356
 20
2585.601317285073
 11
-0.0000000000005061
 21
2.304000000000193
 40
1.0
 50
292.0243128370356
 51
360.0000000000002
 73
     1
 72
     1
 10
2839.213015814356
 20
2587.905317285073
 11
2837.773015814356
 21
2587.905317285073
 72
     1
 10
2837.773015814356
 20
2587.905317285073
 11
2780.317015814356
 21
2587.905317285073
 72
     1
 10
2780.317015814356
 20
2587.905317285074
 11
2779.957015814356
 21
2587.905317285074
 72
     1
 10
2779.957015814356
 20
2587.905317285074
 11
2779.957015814356
 21
2589.345317285074
 72
     1
 10
2779.957015814356
 20
2589.345317285073
 11
2824.957015814357
 21
2589.345317285073
 72
     1
 10
2824.957015814356
 20
2589.345317285073
 11
2837.557015814354
 21
2589.345317285073
 72
     1
 10
2837.557015814354
 20
2589.345317285073
 11
2839.213015814356
 21
2589.345317285073
 72
     3
 10
2839.213015814356
 20
2585.601317285074
 11
3.743999999999459
 21
0.0000000000000231
 40
1.0
 50
269.9999999999886
 51
359.9999999999994
 73
     0
 72
     1
 10
2842.957015814356
 20
2585.601317285074
 11
2842.957015814356
 21
2486.889317285074
 72
     3
 10
2839.213015814356
 20
2486.889317285073
 11
0.0000000000002469
 21
-3.744000000000118
 40
1.0
 50
270.0000000000057
 51
360.0
 73
     0
 72
     1
 10
2839.213015814356
 20
2483.145317285073
 11
974.7010158143535
 21
2483.145317285078
 72
     3
 10
974.7010158143552
 20
2486.889317285078
 11
-3.744000000000001
 21
0.0000000000000074
 40
1.0
 50
270.0000000000194
 51
359.9999999999998
 73
     0
 72
     1
 10
970.9570158143543
 20
2486.889317285078
 11
970.9570158143542
 21
2497.185317285079
 72
     1
 10
970.9570158143542
 20
2497.185317285079
 11
970.9570158143542
 21
2569.185317285079
 72
     1
 10
970.9570158143543
 20
2569.185317285079
 11
970.9570158143543
 21
2585.601317285078
 72
     3
 10
974.7010158143543
 20
2585.601317285078
 11
-0.0000000014907666
 21
3.744000000000018
 40
1.0
 50
270.0000000228142
 51
359.9999999999998
 73
     0
 72
     1
 10
974.7010158128636
 20
2589.345317283588
 11
976.3570158143544
 21
2589.345317285077
 72
     1
 10
976.3570158143547
 20
2589.345317285078
 11
988.9570158143564
 21
2589.345317285078
 72
     1
 10
988.9570158143564
 20
2589.345317285077
 11
1033.957015814354
 21
2589.345317285077
 72
     1
 10
1033.957015814354
 20
2589.345317285077
 11
1033.957015814354
 21
2587.905317285077
 72
     1
 10
1033.957015814354
 20
2587.905317285078
 11
1033.597015814353
 21
2587.905317285078
 72
     1
 10
1033.597015814353
 20
2587.905317285078
 11
976.1410158143531
 21
2587.905317285078
 72
     1
 10
976.1410158143531
 20
2587.905317285078
 11
974.7010158143552
 21
2587.905317285078
 72
     3
 10
974.7010158143547
 20
2585.601317285078
 11
-2.304000000000321
 21
0.0000000000000055
 40
1.0
 50
269.9999999999906
 51
359.9999999999993
 73
     1
 72
     1
 10
972.3970158143544
 20
2585.601317285078
 11
972.3970158143544
 21
2584.161317285079
 72
     1
 10
972.3970158143542
 20
2584.161317285078
 11
972.3970158143542
 21
2488.329317285078
 72
     1
 10
972.3970158143542
 20
2488.329317285078
 11
972.3970158143547
 21
2486.889317285078
 72
     3
 10
974.7010158143552
 20
2486.889317285078
 11
-0.8639999999996023
 21
-2.135865164283701
 40
1.0
 50
292.0243128370316
 51
360.0000000000018
 73
     1
 97
        0
 75
     0
 76
     1
 52
75.0
 41
457.2
 77
     0
 78
     1
 53
120.0
 43
0.0
 44
0.0
 45
-49.49335182628066
 46
-28.575
 79
     0
 98
        1
 10
1906.95701581436
 20
2804.106644880164
  0
HATCH
  5
3E4
330
6C
100
AcDbEntity
  8
Kreskowanie (ISO)
100
AcDbHatch
 10
0.0
 20
0.0
 30
0.0
210
0.0
220
0.0
230
1.0
  2
ANSI31
 70
     0
 71
     0
 91
        1
 92
        1
 93
        8
 72
     1
 10
2824.957015814356
 20
2589.345317285073
 11
2824.957015814356
 21
2590.785317285073
 72
     1
 10
2824.957015814356
 20
2590.785317285073
 11
2756.569816825884
 21
2590.785317285073
 72
     1
 10
2756.569816825884
 20
2590.785317285073
 11
1057.344214802884
 21
2590.785317285078
 72
     1
 10
1057.344214802884
 20
2590.785317285078
 11
988.9570158143559
 21
2590.785317285078
 72
     1
 10
988.9570158143559
 20
2590.785317285078
 11
988.9570158143559
 21
2589.345317285078
 72
     1
 10
988.9570158143559
 20
2589.345317285078
 11
1033.957015814354
 21
2589.345317285078
 72
     1
 10
1033.957015814354
 20
2589.345317285078
 11
2779.957015814356
 21
2589.345317285074
 72
     1
 10
2779.957015814356
 20
2589.345317285074
 11
2824.957015814355
 21
2589.345317285074
 97
        0
 75
     0
 76
     1
 52
-15.0
 41
457.2
 77
     0
 78
     1
 53
30.0
 43
0.0
 44
0.0
 45
-28.575
 46
49.49335182628066
 79
     0
 98
        1
 10
1906.95701581436
 20
2804.106644880164
  0
HATCH
  5
3E9
330
6C
100
AcDbEntity
  8
Kreskowanie (ISO)
100
AcDbHatch
 10
0.0
 20
0.0
 30
0.0
210
0.0
220
0.0
230
1.0
  2
ANSI31
 70
     0
 71
     0
 91
        1
 92
        1
 93
        4
 72
     1
 10
960.157015814352
 20
2497.185317285079
 11
970.9570158143522
 21
2497.185317285079
 72
     1
 10
970.9570158143522
 20
2497.185317285079
 11
970.9570158143522
 21
2569.185317285079
 72
     1
 10
970.9570158143518
 20
2569.185317285079
 11
960.157015814352
 21
2569.185317285079
 72
     1
 10
960.157015814352
 20
2569.185317285079
 11
960.157015814352
 21
2497.185317285079
 97
        0
 75
     0
 76
     1
 52
105.0
 41
457.2
 77
     0
 78
     1
 53
150.0
 43
0.0
 44
0.0
 45
-28.575
 46
-49.49335182628068
 79
     0
 98
        1
 10
1906.95701581436
 20
2804.106644880164
  0
HATCH
  5
3F2
330
6C
100
AcDbEntity
  8
Kreskowanie (ISO)
100
AcDbHatch
 10
0.0
 20
0.0
 30
0.0
210
0.0
220
0.0
230
1.0
  2
ANSI31
 70
     0
 71
     0
 91
        1
 92
        1
 93
        8
 72
     1
 10
973.8370158143531
 20
2486.025317285078
 11
976.1410158143528
 21
2486.025317285078
 72
     1
 10
976.1410158143528
 20
2486.025317285078
 11
979.237015814353
 21
2486.025317285078
 72
     1
 10
979.237015814353
 20
2486.025317285078
 11
979.237015814353
 21
2585.025317285078
 72
     1
 10
979.237015814353
 20
2585.025317285078
 11
974.0051506500696
 21
2585.025317285078
 72
     1
 10
974.0051506500696
 20
2585.025317285078
 11
973.837015814353
 21
2585.025317285078
 72
     1
 10
973.8370158143531
 20
2585.025317285078
 11
973.8370158143531
 21
2584.161317285078
 72
     1
 10
973.8370158143531
 20
2584.161317285078
 11
973.8370158143531
 21
2488.329317285078
 72
     1
 10
973.8370158143531
 20
2488.329317285078
 11
973.8370158143531
 21
2486.025317285078
 97
        0
 75
     0
 76
     1
 52
0.0
 41
457.2
 77
     0
 78
     1
 53
45.0
 43
0.0
 44
0.0
 45
-40.41115254481119
 46
40.41115254481119
 79
     0
 98
        1
 10
1906.95701581436
 20
2804.106644880164
  0
HATCH
  5
402
330
6C
100
AcDbEntity
  8
Kreskowanie (ISO)
100
AcDbHatch
 10
0.0
 20
0.0
 30
0.0
210
0.0
220
0.0
230
1.0
  2
ANSI31
 70
     0
 71
     0
 91
        1
 92
        1
 93
       15
 72
     1
 10
1008.397015814352
 20
2486.025317285078
 11
979.2370158143526
 21
2486.025317285078
 72
     1
 10
979.2370158143526
 20
2486.025317285078
 11
976.1410158143528
 21
2486.025317285078
 72
     3
 10
976.1410158143528
 20
2488.329317285078
 11
-0.0000000000000057
 21
-2.304000000000003
 40
1.0
 50
-0.0000000000001527
 51
89.99999999999984
 73
     0
 72
     1
 10
973.8370158143528
 20
2488.329317285078
 11
973.837015814353
 21
2584.161317285078
 72
     3
 10
976.1410158143528
 20
2584.161317285078
 11
-2.304000000000073
 21
0.0000000000000047
 40
1.0
 50
-0.0000000000001018
 51
22.02431283703774
 73
     0
 72
     3
 10
976.1410158143528
 20
2584.161317285078
 11
-2.135865164283627
 21
0.8639999999999094
 40
1.0
 50
-0.0000000000003053
 51
67.97568716296064
 73
     0
 72
     1
 10
976.1410158143528
 20
2586.465317285078
 11
1033.597015814353
 21
2586.465317285078
 72
     1
 10
1033.597015814353
 20
2586.465317285078
 11
1033.597015814353
 21
2587.905317285078
 72
     1
 10
1033.597015814353
 20
2587.905317285078
 11
976.1410158143528
 21
2587.905317285078
 72
     3
 10
976.1410158143528
 20
2584.161317285078
 11
0.0000000000000076
 21
3.744000000000018
 40
1.0
 50
0.0000000000001166
 51
89.99999999999962
 73
     1
 72
     1
 10
972.3970158143528
 20
2584.161317285078
 11
972.3970158143528
 21
2488.329317285078
 72
     3
 10
976.1410158143528
 20
2488.329317285078
 11
-3.744000000000001
 21
0.0000000000000111
 40
1.0
 50
0.0000000000001701
 51
52.02012755520015
 73
     1
 72
     3
 10
976.1410158143528
 20
2488.329317285078
 11
-2.303999999997363
 21
-2.951121820598433
 40
1.0
 50
0.0000000000006616
 51
37.9798724448007
 73
     1
 72
     1
 10
976.1410158143528
 20
2484.585317285078
 11
1008.397015814353
 21
2484.585317285078
 72
     1
 10
1008.397015814352
 20
2484.585317285078
 11
1008.397015814352
 21
2486.025317285078
 97
        0
 75
     0
 76
     1
 52
90.0
 41
457.2
 77
     0
 78
     1
 53
135.0
 43
0.0
 44
0.0
 45
-40.41115254481119
 46
-40.41115254481119
 79
     0
 98
        1
 10
1906.95701581436
 20
2804.106644880164
  0
HATCH
  5
410
330
6C
100
AcDbEntity
  8
Kreskowanie (ISO)
100
AcDbHatch
 10
0.0
 20
0.0
 30
0.0
210
0.0
220
0.0
230
1.0
  2
ANSI31
 70
     0
 71
     0
 91
        1
 92
        1
 93
       13
 72
     1
 10
2837.773015814355
 20
2486.025317285073
 11
2805.517015814355
 21
2486.025317285073
 72
     1
 10
2805.517015814355
 20
2486.025317285073
 11
2805.517015814355
 21
2484.585317285072
 72
     1
 10
2805.517015814355
 20
2484.585317285072
 11
2837.773015814354
 21
2484.585317285072
 72
     3
 10
2837.773015814355
 20
2488.329317285073
 11
-0.0000000000000093
 21
-3.744000000000004
 40
1.0
 50
0.0000000000001427
 51
90.0000000000001
 73
     1
 72
     1
 10
2841.517015814356
 20
2488.329317285073
 11
2841.517015814356
 21
2584.161317285072
 72
     3
 10
2837.773015814355
 20
2584.161317285072
 11
3.743999999999988
 21
-0.0000000000000253
 40
1.0
 50
0.0
 51
37.97987244487322
 73
     1
 72
     3
 10
2837.773015814355
 20
2584.161317285072
 11
2.951121820595508
 21
2.304000000001049
 40
1.0
 50
0.0
 51
52.02012755512729
 73
     1
 72
     1
 10
2837.773015814355
 20
2587.905317285072
 11
2780.317015814355
 21
2587.905317285072
 72
     1
 10
2780.317015814356
 20
2587.905317285072
 11
2780.317015814356
 21
2586.465317285072
 72
     1
 10
2780.317015814356
 20
2586.465317285072
 11
2837.773015814356
 21
2586.465317285072
 72
     3
 10
2837.773015814355
 20
2584.161317285072
 11
-0.0000000000000127
 21
2.304000000000002
 40
1.0
 50
0.0000000000003053
 51
90.00000000000108
 73
     0
 72
     1
 10
2840.077015814355
 20
2584.161317285072
 11
2840.077015814355
 21
2488.329317285073
 72
     3
 10
2837.773015814355
 20
2488.329317285073
 11
2.304000000000003
 21
-0.0000000000000032
 40
1.0
 50
-0.0000000000001018
 51
89.99999999999991
 73
     0
 97
        0
 75
     0
 76
     1
 52
15.0
 41
457.2
 77
     0
 78
     1
 53
60.0
 43
0.0
 44
0.0
 45
-49.49335182628066
 46
28.57500000000001
 79
     0
 98
        1
 10
1906.95701581436
 20
2804.106644880164
  0
HATCH
  5
413
330
6C
100
AcDbEntity
  8
Kreskowanie (ISO)
100
AcDbHatch
 10
0.0
 20
0.0
 30
0.0
210
0.0
220
0.0
230
1.0
  2
ANSI31
 70
     0
 71
     0
 91
        2
 92
        1
 93
        1
 72
     3
 10
2520.757015814342
 20
2534.805317285075
 11
-18.0
 21
0.000000000000043
 40
1.0
 50
0.0
 51
360.0
 73
     1
 97
        0
 92
        0
 93
        1
 72
     3
 10
2520.757015814342
 20
2534.805317285075
 11
16.2
 21
-0.0000000000000387
 40
1.0
 50
0.0
 51
360.0
 73
     1
 97
        0
 75
     0
 76
     1
 52
75.0
 41
457.2
 77
     0
 78
     1
 53
120.0
 43
0.0
 44
0.0
 45
-49.49335182628066
 46
-28.575
 79
     0
 98
        1
 10
1906.95701581436
 20
2804.106644880164
  0
HATCH
  5
415
330
6C
100
AcDbEntity
  8
Kreskowanie (ISO)
100
AcDbHatch
 10
0.0
 20
0.0
 30
0.0
210
0.0
220
0.0
230
1.0
  2
ANSI31
 70
     0
 71
     0
 91
        1
 92
        1
 93
        1
 72
     3
 10
2520.757015814357
 20
2534.805317285074
 11
-5.784131462303164
 21
4.287636088428526
 40
1.0
 50
0.0
 51
360.0
 73
     1
 97
        0
 75
     0
 76
     1
 52
-15.0
 41
457.2
 77
     0
 78
     1
 53
30.0
 43
0.0
 44
0.0
 45
-28.575
 46
49.49335182628066
 79
     0
 98
        1
 10
1906.95701581436
 20
2804.106644880164
  0
HATCH
  5
434
330
6C
100
AcDbEntity
  8
Kreskowanie (ISO)
100
AcDbHatch
 10
0.0
 20
0.0
 30
0.0
210
0.0
220
0.0
230
1.0
  2
ANSI31
 70
     0
 71
     0
 91
        3
 92
        1
 93
       18
 72
     1
 10
2756.823772358521
 20
2605.068058435647
 11
2756.569816825872
 21
2590.785317285073
 72
     3
 10
2791.123422541573
 20
2255.993471359362
 11
-34.55360571569953
 21
334.7918459257103
 40
1.0
 50
0.0
 51
13.82246857545419
 73
     0
 72
     1
 10
2837.557015814354
 20
2589.345317285072
 11
2837.810971347002
 21
2603.628058435647
 72
     3
 10
2837.451028240387
 20
2603.634458435647
 11
0.3599431066156051
 21
-0.0063999999999692
 40
1.0
 50
0.000000000003664
 51
35.43195758404001
 73
     1
 72
     1
 10
2837.748021835898
 20
2603.837915566822
 11
2824.106436409577
 21
2623.751021983021
 72
     3
 10
2815.196628544272
 20
2617.647308047772
 11
8.909807865304493
 21
6.103713935249443
 40
1.0
 50
0.0000000000001018
 51
23.37795803620764
 73
     1
 72
     3
 10
2815.196628544272
 20
2617.647308047772
 11
5.75645613019889
 21
9.138009237306317
 40
1.0
 50
0.0000000000001007
 51
64.41745935474533
 73
     1
 72
     3
 10
2815.196628544272
 20
2617.647308047772
 11
-5.756456130198914
 21
9.138009237306304
 40
1.0
 50
0.0000000000006043
 51
95.47478752302202
 73
     1
 72
     1
 10
2806.649514767372
 20
2611.045274566738
 11
2814.573847809429
 21
2600.786287496905
 72
     3
 10
2812.437069365204
 20
2599.135779126646
 11
2.136778444225351
 21
1.650508370258658
 40
1.0
 50
-0.0000000000005089
 51
131.2312285791316
 73
     0
 72
     3
 10
2791.107603860647
 20
2255.10381117888
 11
21.16239035308547
 21
341.3371421846112
 40
1.0
 50
0.0000000000000167
 51
5.058132162210257
 73
     1
 72
     3
 10
2782.021935284226
 20
2599.676578087761
 11
0.071168658835029
 21
-2.699061878134627
 40
1.0
 50
-0.0000000000311949
 51
131.2312285791295
 73
     0
 72
     1
 10
2779.945182962701
 20
2601.402005511629
 11
2788.22921338206
 21
2611.3727983523
 72
     3
 10
2779.922204095955
 20
2618.274508047772
 11
8.307009286104811
 21
-6.901709695471733
 40
1.0
 50
0.0000000000001325
 51
91.72333350010537
 73
     1
 72
     3
 10
2779.922204095955
 20
2618.274508047772
 11
6.648768767687915
 21
8.510809237306267
 40
1.0
 50
0.0
 51
75.99494859110011
 73
     1
 72
     3
 10
2779.922204095955
 20
2618.274508047772
 11
-6.648768767687923
 21
8.510809237306245
 40
1.0
 50
0.000000000000811
 51
15.55192282277036
 73
     1
 72
     1
 10
2771.235014751745
 20
2624.691106936424
 11
2756.894142486996
 21
2605.275545065269
 72
     3
 10
2757.183715465136
 20
2605.061658435647
 11
-0.2895729781402803
 21
0.2138866296217112
 40
1.0
 50
0.0
 51
35.43195758405591
 73
     1
 97
        0
 92
        0
 93
        6
 72
     1
 10
2818.684006971991
 20
2600.470930416457
 11
2809.071197004159
 21
2612.915850719697
 72
     3
 10
2815.196628544272
 20
2617.647308047772
 11
-6.125431540112674
 21
-4.73145732807483
 40
1.0
 50
0.0000000000003562
 51
183.2702049139748
 73
     0
 72
     1
 10
2821.58199084774
 20
2622.021636368033
 11
2834.254702014199
 21
2603.5228300964
 72
     1
 10
2834.254702014198
 20
2603.522830096401
 11
2834.090413937198
 21
2594.28308621895
 72
     3
 10
2791.123422541564
 20
2255.993471359291
 11
42.96699139563359
 21
338.2896148596584
 40
1.0
 50
0.0
 51
2.442332003547455
 73
     1
 72
     3
 10
2814.410450083541
 20
2597.16991367594
 11
5.225118304118373
 21
-1.363135616131834
 40
1.0
 50
0.000000000003276
 51
52.30502029292395
 73
     1
 97
        0
 92
        0
 93
        6
 72
     3
 10
2779.922204095955
 20
2618.274508047772
 11
-6.225819030017009
 21
4.598562536867164
 40
1.0
 50
176.7297950860247
 51
360.0
 73
     1
 72
     1
 10
2773.696385065938
 20
2622.873070584639
 11
2760.402153649865
 21
2604.874515976306
 72
     1
 10
2760.402153649865
 20
2604.874515976306
 11
2760.237685989821
 21
2595.624672149104
 72
     3
 10
2791.123422541577
 20
2255.993471359296
 11
-16.41931426302821
 21
340.6371785219625
 40
1.0
 50
357.563490956345
 51
360.0
 73
     0
 72
     3
 10
2779.979915545552
 20
2597.78210881732
 11
-4.153504643052378
 21
3.450854847735864
 40
1.0
 50
307.9673022942253
 51
359.9999999999992
 73
     0
 72
     1
 10
2775.8264109025
 20
2601.232963665057
 11
2785.875560750997
 21
2613.328282766018
 97
        0
 75
     0
 76
     1
 52
105.0
 41
457.2
 77
     0
 78
     1
 53
150.0
 43
0.0
 44
0.0
 45
-28.575
 46
-49.49335182628068
 79
     0
 98
        1
 10
1906.95701581436
 20
2804.106644880164
  0
HATCH
  5
453
330
6C
100
AcDbEntity
  8
Kreskowanie (ISO)
100
AcDbHatch
 10
0.0
 20
0.0
 30
0.0
210
0.0
220
0.0
230
1.0
  2
ANSI31
 70
     0
 71
     0
 91
        3
 92
        1
 93
       18
 72
     3
 10
1056.730316163573
 20
2605.061658435657
 11
0.3599431066154289
 21
0.0063999999999826
 40
1.0
 50
0.0
 51
35.43195758405244
 73
     1
 72
     1
 10
1057.019889141713
 20
2605.275545065279
 11
1042.679016876964
 21
2624.691106936434
 72
     3
 10
1033.991827532754
 20
2618.274508047782
 11
8.687189344209949
 21
6.416598888652004
 40
1.0
 50
0.0
 51
15.55192282268046
 73
     1
 72
     3
 10
1033.991827532754
 20
2618.274508047782
 11
6.648768767701204
 21
8.510809237295887
 40
1.0
 50
-0.0000000000000509
 51
75.99494859127922
 73
     1
 72
     3
 10
1033.991827532754
 20
2618.274508047782
 11
-6.648768767701428
 21
8.510809237295708
 40
1.0
 50
0.0
 51
91.72333350001411
 73
     1
 72
     1
 10
1025.684818246649
 20
2611.372798352312
 11
1033.968848666009
 21
2601.402005511639
 72
     3
 10
1031.892096344483
 20
2599.676578087771
 11
2.076752321526211
 21
1.725427423867924
 40
1.0
 50
-0.0000000000000509
 51
131.231228579131
 73
     0
 72
     3
 10
1022.806427768061
 20
2255.10381117889
 11
9.014499917587235
 21
341.8737050307464
 40
1.0
 50
0.0
 51
5.058132162210409
 73
     1
 72
     3
 10
1001.476962263505
 20
2599.135779126657
 11
0.1670751514717283
 21
-2.6948257631544
 40
1.0
 50
-0.0000000000074298
 51
131.231228579134
 73
     0
 72
     1
 10
999.3401838192799
 20
2600.786287496914
 11
1007.264516861338
 21
2611.045274566747
 72
     3
 10
998.7174030844371
 20
2617.647308047783
 11
8.547113776901371
 21
-6.602033481034665
 40
1.0
 50
0.0000000000002756
 51
95.47478752291846
 73
     1
 72
     3
 10
998.7174030844371
 20
2617.647308047783
 11
5.756456130215505
 21
9.13800923729585
 40
1.0
 50
0.0
 51
64.41745935495454
 73
     1
 72
     3
 10
998.7174030844375
 20
2617.647308047783
 11
-5.75645613021588
 21
9.13800923729584
 40
1.0
 50
0.0000000000000159
 51
23.37795803610109
 73
     1
 72
     1
 10
989.807595219133
 20
2623.751021983032
 11
976.1660097928116
 21
2603.837915566833
 72
     3
 10
976.4630033883216
 20
2603.634458435657
 11
-0.2969935955102799
 21
0.2034571311750153
 40
1.0
 50
0.0
 51
35.43195758403906
 73
     1
 72
     1
 10
976.1030602817058
 20
2603.628058435658
 11
976.3570158143547
 21
2589.345317285083
 72
     3
 10
1022.790609087135
 20
2255.99347135938
 11
-46.433593272781
 21
333.3518459257027
 40
1.0
 50
0.0
 51
13.82246857545449
 73
     0
 72
     1
 10
1057.344214802836
 20
2590.785317285082
 11
1057.090259270188
 21
2605.068058435657
 97
        0
 92
        0
 93
        6
 72
     1
 10
1004.84283462455
 20
2612.915850719707
 11
995.2300246567176
 21
2600.470930416468
 72
     3
 10
999.5035815451684
 20
2597.169913675951
 11
-4.273556888450674
 21
3.30101674051734
 40
1.0
 50
0.0000000000001643
 51
52.30502029292328
 73
     1
 72
     3
 10
1022.790609087143
 20
2255.993471359303
 11
-28.51214584609364
 21
339.8133067005162
 40
1.0
 50
0.000000000000006
 51
2.442332003547752
 73
     1
 72
     1
 10
979.823617691512
 20
2594.28308621896
 11
979.6593296145104
 21
2603.522830096411
 72
     1
 10
979.6593296145104
 20
2603.522830096411
 11
992.3320407809692
 21
2622.021636368045
 72
     3
 10
998.7174030844371
 20
2617.647308047783
 11
-6.385362303468208
 21
4.374328320262124
 40
1.0
 50
-0.0000000000001527
 51
183.2702049139752
 73
     0
 97
        0
 92
        0
 93
        6
 72
     3
 10
1033.991827532754
 20
2618.274508047782
 11
-5.953356655041799
 21
-4.946225281754723
 40
1.0
 50
176.7297950860253
 51
359.9999999999996
 73
     1
 72
     1
 10
1028.038470877712
 20
2613.328282766028
 11
1038.087620726209
 21
2601.232963665066
 72
     3
 10
1033.934116083157
 20
2597.78210881733
 11
5.275807267003294
 21
-1.151458936061184
 40
1.0
 50
307.9673022942257
 51
359.9999999999978
 73
     0
 72
     3
 10
1022.790609087134
 20
2255.99347135935
 11
30.88573655175393
 21
339.6312007897649
 40
1.0
 50
357.5634909563448
 51
360.0
 73
     0
 72
     1
 10
1053.676345638888
 20
2595.624672149115
 11
1053.511877978844
 21
2604.874515976317
 72
     1
 10
1053.511877978844
 20
2604.874515976317
 11
1040.217646562771
 21
2622.87307058465
 97
        0
 75
     0
 76
     1
 52
0.0
 41
457.2
 77
     0
 78
     1
 53
45.0
 43
0.0
 44
0.0
 45
-40.41115254481119
 46
40.41115254481119
 79
     0
 98
        1
 10
1906.95701581436
 20
2804.106644880164
  0
HATCH
  5
46E
330
6C
100
AcDbEntity
  8
Kreskowanie (ISO)
100
AcDbHatch
 10
0.0
 20
0.0
 30
0.0
210
0.0
220
0.0
230
1.0
  2
ANSI31
 70
     0
 71
     0
 91
        1
 92
        1
 93
       26
 72
     1
 10
973.8370158143553
 20
2586.465317285078
 11
973.8370158143556
 21
2585.025317285078
 72
     1
 10
973.8370158143556
 20
2585.025317285078
 11
973.8370158143556
 21
2584.161317285078
 72
     1
 10
973.8370158143556
 20
2584.161317285078
 11
973.8370158143553
 21
2488.329317285078
 72
     1
 10
973.8370158143553
 20
2488.329317285078
 11
973.8370158143553
 21
2486.025317285078
 72
     1
 10
973.8370158143553
 20
2486.025317285078
 11
973.8370158143553
 21
2485.378195464479
 72
     1
 10
973.8370158143553
 20
2485.378195464479
 11
973.8370158143553
 21
2484.753452120794
 72
     1
 10
973.8370158143553
 20
2484.753452120794
 11
973.8370158143553
 21
2484.585317285078
 72
     1
 10
973.8370158143553
 20
2484.585317285078
 11
974.7010158143531
 21
2484.585317285078
 72
     1
 10
974.7010158143536
 20
2484.585317285078
 11
976.1410158143526
 21
2484.585317285078
 72
     1
 10
976.1410158143526
 20
2484.585317285078
 11
1008.397015814352
 21
2484.585317285078
 72
     1
 10
1008.397015814352
 20
2484.585317285078
 11
2805.517015814355
 21
2484.585317285074
 72
     1
 10
2805.517015814355
 20
2484.585317285074
 11
2837.773015814354
 21
2484.585317285074
 72
     1
 10
2837.773015814355
 20
2484.585317285073
 11
2839.213015814356
 21
2484.585317285073
 72
     1
 10
2839.213015814356
 20
2484.585317285073
 11
2841.517015814355
 21
2484.585317285073
 72
     1
 10
2841.517015814355
 20
2484.585317285073
 11
2841.517015814355
 21
2486.889317285073
 72
     1
 10
2841.517015814355
 20
2486.889317285073
 11
2841.517015814355
 21
2488.329317285073
 72
     1
 10
2841.517015814355
 20
2488.329317285073
 11
2841.517015814356
 21
2584.161317285072
 72
     1
 10
2841.517015814356
 20
2584.161317285072
 11
2841.517015814356
 21
2585.601317285074
 72
     1
 10
2841.517015814356
 20
2585.601317285074
 11
2841.517015814356
 21
2586.465317285074
 72
     1
 10
2841.517015814356
 20
2586.465317285073
 11
2841.34888097864
 21
2586.465317285073
 72
     1
 10
2841.34888097864
 20
2586.465317285073
 11
2840.724137634951
 21
2586.465317285073
 72
     1
 10
2840.724137634951
 20
2586.465317285073
 11
2837.773015814356
 21
2586.465317285073
 72
     1
 10
2837.773015814356
 20
2586.465317285073
 11
2780.317015814356
 21
2586.465317285073
 72
     1
 10
2780.317015814356
 20
2586.465317285073
 11
1033.597015814353
 21
2586.465317285077
 72
     1
 10
1033.597015814353
 20
2586.465317285078
 11
976.1410158143531
 21
2586.465317285078
 72
     1
 10
976.1410158143531
 20
2586.465317285078
 11
973.8370158143553
 21
2586.465317285078
 97
        0
 75
     0
 76
     1
 52
90.0
 41
457.2
 77
     1
 78
     1
 53
135.0
 43
0.0
 44
0.0
 45
-40.41115254481119
 46
-40.41115254481119
 79
     0
 98
        1
 10
1906.95701581436
 20
2804.106644880164
  0
HATCH
  5
46F
330
6C
100
AcDbEntity
  8
Kreskowanie (ISO)
100
AcDbHatch
 10
0.0
 20
0.0
 30
0.0
210
0.0
220
0.0
230
1.0
  2
ANSI31
 70
     0
 71
     0
 91
        1
 92
        1
 93
       26
 72
     1
 10
973.8370158143553
 20
2586.465317285078
 11
973.8370158143556
 21
2585.025317285078
 72
     1
 10
973.8370158143556
 20
2585.025317285078
 11
973.8370158143556
 21
2584.161317285078
 72
     1
 10
973.8370158143556
 20
2584.161317285078
 11
973.8370158143553
 21
2488.329317285078
 72
     1
 10
973.8370158143553
 20
2488.329317285078
 11
973.8370158143553
 21
2486.025317285078
 72
     1
 10
973.8370158143553
 20
2486.025317285078
 11
973.8370158143553
 21
2485.378195464479
 72
     1
 10
973.8370158143553
 20
2485.378195464479
 11
973.8370158143553
 21
2484.753452120794
 72
     1
 10
973.8370158143553
 20
2484.753452120794
 11
973.8370158143553
 21
2484.585317285078
 72
     1
 10
973.8370158143553
 20
2484.585317285078
 11
974.7010158143531
 21
2484.585317285078
 72
     1
 10
974.7010158143536
 20
2484.585317285078
 11
976.1410158143526
 21
2484.585317285078
 72
     1
 10
976.1410158143526
 20
2484.585317285078
 11
1008.397015814352
 21
2484.585317285078
 72
     1
 10
1008.397015814352
 20
2484.585317285078
 11
2805.517015814355
 21
2484.585317285074
 72
     1
 10
2805.517015814355
 20
2484.585317285074
 11
2837.773015814354
 21
2484.585317285074
 72
     1
 10
2837.773015814355
 20
2484.585317285073
 11
2839.213015814356
 21
2484.585317285073
 72
     1
 10
2839.213015814356
 20
2484.585317285073
 11
2841.517015814355
 21
2484.585317285073
 72
     1
 10
2841.517015814355
 20
2484.585317285073
 11
2841.517015814355
 21
2486.889317285073
 72
     1
 10
2841.517015814355
 20
2486.889317285073
 11
2841.517015814355
 21
2488.329317285073
 72
     1
 10
2841.517015814355
 20
2488.329317285073
 11
2841.517015814356
 21
2584.161317285072
 72
     1
 10
2841.517015814356
 20
2584.161317285072
 11
2841.517015814356
 21
2585.601317285074
 72
     1
 10
2841.517015814356
 20
2585.601317285074
 11
2841.517015814356
 21
2586.465317285074
 72
     1
 10
2841.517015814356
 20
2586.465317285073
 11
2841.34888097864
 21
2586.465317285073
 72
     1
 10
2841.34888097864
 20
2586.465317285073
 11
2840.724137634951
 21
2586.465317285073
 72
     1
 10
2840.724137634951
 20
2586.465317285073
 11
2837.773015814356
 21
2586.465317285073
 72
     1
 10
2837.773015814356
 20
2586.465317285073
 11
2780.317015814356
 21
2586.465317285073
 72
     1
 10
2780.317015814356
 20
2586.465317285073
 11
1033.597015814353
 21
2586.465317285077
 72
     1
 10
1033.597015814353
 20
2586.465317285078
 11
976.1410158143531
 21
2586.465317285078
 72
     1
 10
976.1410158143531
 20
2586.465317285078
 11
973.8370158143553
 21
2586.465317285078
 97
        0
 75
     0
 76
     1
 52
180.0
 41
457.2
 77
     1
 78
     1
 53
225.0
 43
0.0
 44
0.0
 45
40.41115254481119
 46
-40.4111525448112
 79
     0
 98
        1
 10
1906.95701581436
 20
2804.106644880164
  0
HATCH
  5
49E
330
6C
100
AcDbEntity
  8
Kreskowanie (ISO)
100
AcDbHatch
 10
0.0
 20
0.0
 30
0.0
210
0.0
220
0.0
230
1.0
  2
ANSI31
 70
     0
 71
     0
 91
        2
 92
        1
 93
       23
 72
     1
 10
2920.100582128704
 20
2699.685317285079
 11
2920.987015814361
 21
2699.685317285079
 72
     1
 10
2920.987015814361
 20
2699.685317285077
 11
2920.109515814362
 21
2698.785317285079
 72
     1
 10
2920.109515814362
 20
2698.785317285079
 11
2917.477015814363
 21
2696.085317285078
 72
     1
 10
2917.477015814363
 20
2696.085317285078
 11
2919.277015814362
 21
2696.085317285078
 72
     1
 10
2919.277015814362
 20
2696.085317285078
 11
2921.909515814363
 21
2698.785317285079
 72
     1
 10
2921.909515814363
 20
2698.785317285079
 11
2922.517015814362
 21
2699.408394208154
 72
     1
 10
2922.517015814362
 20
2699.408394208155
 11
2922.517015814362
 21
2872.485317285078
 72
     1
 10
2922.517015814362
 20
2872.485317285077
 11
2920.987015814361
 21
2872.485317285077
 72
     1
 10
2920.987015814361
 20
2872.485317285077
 11
2920.987015814361
 21
2735.325317285078
 72
     1
 10
2920.987015814361
 20
2735.325317285078
 11
2921.347015814362
 21
2735.325317285078
 72
     1
 10
2921.347015814362
 20
2735.325317285078
 11
2921.347015814362
 21
2732.085317285078
 72
     1
 10
2921.347015814362
 20
2732.085317285078
 11
2920.987015814361
 21
2732.085317285078
 72
     1
 10
2920.987015814361
 20
2732.085317285078
 11
2920.987015814361
 21
2729.925317285078
 72
     1
 10
2920.987015814361
 20
2729.925317285078
 11
2921.347015814362
 21
2729.925317285078
 72
     1
 10
2921.347015814362
 20
2729.925317285078
 11
2921.347015814362
 21
2726.685317285078
 72
     1
 10
2921.347015814362
 20
2726.685317285078
 11
2920.987015814361
 21
2726.685317285078
 72
     1
 10
2920.987015814361
 20
2726.685317285078
 11
2920.987015814361
 21
2724.525317285078
 72
     1
 10
2920.987015814361
 20
2724.525317285078
 11
2921.347015814362
 21
2724.525317285078
 72
     1
 10
2921.347015814362
 20
2724.525317285078
 11
2921.347015814362
 21
2721.285317285078
 72
     1
 10
2921.347015814362
 20
2721.285317285078
 11
2920.987015814361
 21
2721.285317285078
 72
     1
 10
2920.987015814361
 20
2721.285317285078
 11
2920.987015814361
 21
2714.535317285078
 72
     1
 10
2920.987015814361
 20
2714.535317285078
 11
2919.921056281652
 21
2699.878373710318
 72
     3
 10
2920.100582128704
 20
2699.865317285079
 11
-0.1795258470525492
 21
0.0130564252402294
 40
1.0
 50
-0.0000000000004071
 51
94.15964229372658
 73
     1
 97
        0
 92
        1
 93
       23
 72
     1
 10
2937.727015814362
 20
2699.685317285077
 11
2938.613449500019
 21
2699.685317285077
 72
     3
 10
2938.613449500019
 20
2699.865317285079
 11
-0.000000000000034
 21
-0.1799999999999642
 40
1.0
 50
0.0000000000108139
 51
94.15964229373782
 73
     1
 72
     1
 10
2938.792975347072
 20
2699.878373710318
 11
2937.727015814362
 21
2714.535317285078
 72
     1
 10
2937.727015814362
 20
2714.535317285078
 11
2937.727015814362
 21
2721.285317285078
 72
     1
 10
2937.727015814362
 20
2721.285317285078
 11
2937.367015814361
 21
2721.285317285078
 72
     1
 10
2937.367015814363
 20
2721.285317285078
 11
2937.367015814363
 21
2724.525317285078
 72
     1
 10
2937.367015814363
 20
2724.525317285078
 11
2937.727015814362
 21
2724.525317285078
 72
     1
 10
2937.727015814362
 20
2724.525317285078
 11
2937.727015814362
 21
2726.685317285077
 72
     1
 10
2937.727015814362
 20
2726.685317285078
 11
2937.367015814361
 21
2726.685317285078
 72
     1
 10
2937.367015814363
 20
2726.685317285078
 11
2937.367015814363
 21
2729.925317285078
 72
     1
 10
2937.367015814363
 20
2729.925317285078
 11
2937.727015814362
 21
2729.925317285078
 72
     1
 10
2937.727015814362
 20
2729.925317285078
 11
2937.727015814362
 21
2732.085317285078
 72
     1
 10
2937.727015814362
 20
2732.085317285078
 11
2937.367015814361
 21
2732.085317285078
 72
     1
 10
2937.367015814363
 20
2732.085317285078
 11
2937.367015814363
 21
2735.325317285078
 72
     1
 10
2937.367015814363
 20
2735.325317285078
 11
2937.727015814362
 21
2735.325317285078
 72
     1
 10
2937.727015814362
 20
2735.325317285078
 11
2937.727015814362
 21
2872.485317285078
 72
     1
 10
2937.727015814362
 20
2872.485317285077
 11
2936.197015814361
 21
2872.485317285077
 72
     1
 10
2936.197015814363
 20
2872.485317285077
 11
2936.197015814363
 21
2699.408394208155
 72
     1
 10
2936.197015814363
 20
2699.408394208155
 11
2936.804515814362
 21
2698.785317285079
 72
     1
 10
2936.804515814362
 20
2698.785317285079
 11
2939.437015814362
 21
2696.085317285078
 72
     1
 10
2939.437015814362
 20
2696.085317285078
 11
2941.237015814362
 21
2696.085317285078
 72
     1
 10
2941.237015814362
 20
2696.085317285078
 11
2938.604515814362
 21
2698.785317285079
 72
     1
 10
2938.604515814362
 20
2698.785317285079
 11
2937.727015814362
 21
2699.685317285077
 97
        0
 75
     0
 76
     1
 52
15.0
 41
457.2
 77
     0
 78
     1
 53
60.0
 43
0.0
 44
0.0
 45
-49.49335182628066
 46
28.57500000000001
 79
     0
 98
        1
 10
1906.95701581436
 20
2804.106644880164
  0
HATCH
  5
4B2
330
6C
100
AcDbEntity
  8
Kreskowanie (ISO)
100
AcDbHatch
 10
0.0
 20
0.0
 30
0.0
210
0.0
220
0.0
230
1.0
  2
ANSI31
 70
     0
 71
     0
 91
        1
 92
        1
 93
       19
 72
     1
 10
2929.357015814361
 20
2909.385317285078
 11
2923.957015814361
 21
2900.032242924206
 72
     1
 10
2923.957015814362
 20
2900.032242924206
 11
2923.957015814362
 21
2772.585317285078
 72
     1
 10
2923.957015814362
 20
2772.585317285078
 11
2923.237015814363
 21
2770.785317285078
 72
     1
 10
2923.237015814363
 20
2770.785317285078
 11
2923.237015814363
 21
2698.785317285079
 72
     1
 10
2923.237015814363
 20
2698.785317285079
 11
2923.237015814363
 21
2693.385317285077
 72
     1
 10
2923.237015814363
 20
2693.385317285078
 11
2919.457015814362
 21
2693.385317285078
 72
     1
 10
2919.457015814362
 20
2693.385317285078
 11
2917.927015814362
 21
2693.385317285078
 72
     1
 10
2917.927015814362
 20
2693.385317285078
 11
2917.927015814362
 21
2684.385597727414
 72
     3
 10
2917.958788660685
 20
2686.185317284901
 11
-0.031772846323131
 21
-1.799719557486718
 40
1.0
 50
0.0000000000011937
 51
1.011413636910246
 73
     1
 72
     1
 10
2917.958788660687
 20
2684.385317285078
 11
2940.755242968037
 21
2684.385317285078
 72
     3
 10
2940.755242968038
 20
2686.185317284926
 11
-0.0000000000019136
 21
-1.79999999984853
 40
1.0
 50
0.0
 51
1.011413636902819
 73
     1
 72
     1
 10
2940.787015814361
 20
2684.385597727414
 11
2940.787015814361
 21
2693.385317285078
 72
     1
 10
2940.787015814361
 20
2693.385317285078
 11
2939.257015814363
 21
2693.385317285078
 72
     1
 10
2939.257015814363
 20
2693.385317285078
 11
2935.477015814362
 21
2693.385317285078
 72
     1
 10
2935.477015814362
 20
2693.385317285078
 11
2935.477015814362
 21
2698.785317285079
 72
     1
 10
2935.477015814362
 20
2698.785317285079
 11
2935.477015814362
 21
2770.785317285078
 72
     1
 10
2935.477015814362
 20
2770.785317285078
 11
2934.757015814362
 21
2772.585317285078
 72
     1
 10
2934.757015814362
 20
2772.585317285078
 11
2934.757015814362
 21
2900.032242924205
 72
     1
 10
2934.757015814362
 20
2900.032242924206
 11
2929.357015814362
 21
2909.385317285078
 97
        0
 75
     0
 76
     1
 52
75.0
 41
457.2
 77
     0
 78
     1
 53
120.0
 43
0.0
 44
0.0
 45
-49.49335182628066
 46
-28.575
 79
     0
 98
        1
 10
1906.95701581436
 20
2804.106644880164
  0
HATCH
  5
4E1
330
6C
100
AcDbEntity
  8
Kreskowanie (ISO)
100
AcDbHatch
 10
0.0
 20
0.0
 30
0.0
210
0.0
220
0.0
230
1.0
  2
ANSI31
 70
     0
 71
     0
 91
        2
 92
        1
 93
       23
 72
     1
 10
875.3005821286951
 20
2699.685317285077
 11
876.1870158143521
 21
2699.685317285077
 72
     1
 10
876.1870158143521
 20
2699.685317285077
 11
875.3095158143526
 21
2698.785317285079
 72
     1
 10
875.3095158143526
 20
2698.785317285079
 11
872.6770158143525
 21
2696.085317285078
 72
     1
 10
872.6770158143521
 20
2696.085317285078
 11
874.4770158143522
 21
2696.085317285078
 72
     1
 10
874.4770158143522
 20
2696.085317285078
 11
877.1095158143527
 21
2698.785317285079
 72
     1
 10
877.1095158143527
 20
2698.785317285079
 11
877.7170158143523
 21
2699.408394208155
 72
     1
 10
877.7170158143521
 20
2699.408394208155
 11
877.7170158143523
 21
2872.485317285078
 72
     1
 10
877.7170158143523
 20
2872.485317285077
 11
876.1870158143521
 21
2872.485317285077
 72
     1
 10
876.1870158143521
 20
2872.485317285077
 11
876.1870158143521
 21
2735.325317285078
 72
     1
 10
876.1870158143521
 20
2735.325317285078
 11
876.5470158143521
 21
2735.325317285078
 72
     1
 10
876.5470158143521
 20
2735.325317285078
 11
876.5470158143521
 21
2732.085317285078
 72
     1
 10
876.5470158143521
 20
2732.085317285078
 11
876.1870158143521
 21
2732.085317285078
 72
     1
 10
876.1870158143521
 20
2732.085317285078
 11
876.1870158143521
 21
2729.925317285078
 72
     1
 10
876.1870158143521
 20
2729.925317285078
 11
876.5470158143521
 21
2729.925317285078
 72
     1
 10
876.5470158143521
 20
2729.925317285078
 11
876.5470158143521
 21
2726.685317285078
 72
     1
 10
876.5470158143521
 20
2726.685317285078
 11
876.1870158143521
 21
2726.685317285078
 72
     1
 10
876.1870158143521
 20
2726.685317285078
 11
876.1870158143521
 21
2724.525317285078
 72
     1
 10
876.1870158143521
 20
2724.525317285078
 11
876.5470158143521
 21
2724.525317285078
 72
     1
 10
876.5470158143521
 20
2724.525317285078
 11
876.5470158143521
 21
2721.285317285078
 72
     1
 10
876.5470158143521
 20
2721.285317285078
 11
876.1870158143521
 21
2721.285317285078
 72
     1
 10
876.1870158143521
 20
2721.285317285078
 11
876.1870158143521
 21
2714.535317285078
 72
     1
 10
876.1870158143521
 20
2714.535317285078
 11
875.1210562816423
 21
2699.878373710318
 72
     3
 10
875.3005821286949
 20
2699.865317285079
 11
-0.1795258470525492
 21
0.0130564252402295
 40
1.0
 50
0.0
 51
94.15964229376729
 73
     1
 97
        0
 92
        1
 93
       23
 72
     1
 10
892.9270158143522
 20
2699.685317285077
 11
893.8134495000095
 21
2699.685317285077
 72
     3
 10
893.8134495000097
 20
2699.865317285079
 11
-0.000000000000034
 21
-0.1799999999999642
 40
1.0
 50
0.0
 51
94.15964229373782
 73
     1
 72
     1
 10
893.9929753470622
 20
2699.878373710318
 11
892.9270158143522
 21
2714.535317285078
 72
     1
 10
892.9270158143522
 20
2714.535317285078
 11
892.9270158143522
 21
2721.285317285078
 72
     1
 10
892.9270158143522
 20
2721.285317285078
 11
892.5670158143523
 21
2721.285317285078
 72
     1
 10
892.5670158143521
 20
2721.285317285078
 11
892.5670158143523
 21
2724.525317285078
 72
     1
 10
892.5670158143523
 20
2724.525317285078
 11
892.9270158143522
 21
2724.525317285078
 72
     1
 10
892.9270158143522
 20
2724.525317285078
 11
892.9270158143522
 21
2726.685317285077
 72
     1
 10
892.9270158143522
 20
2726.685317285078
 11
892.5670158143523
 21
2726.685317285078
 72
     1
 10
892.5670158143521
 20
2726.685317285078
 11
892.5670158143523
 21
2729.925317285078
 72
     1
 10
892.5670158143523
 20
2729.925317285078
 11
892.9270158143522
 21
2729.925317285078
 72
     1
 10
892.9270158143522
 20
2729.925317285078
 11
892.9270158143522
 21
2732.085317285078
 72
     1
 10
892.9270158143522
 20
2732.085317285078
 11
892.5670158143523
 21
2732.085317285078
 72
     1
 10
892.5670158143521
 20
2732.085317285078
 11
892.5670158143523
 21
2735.325317285078
 72
     1
 10
892.5670158143523
 20
2735.325317285078
 11
892.9270158143522
 21
2735.325317285078
 72
     1
 10
892.9270158143522
 20
2735.325317285078
 11
892.9270158143522
 21
2872.485317285078
 72
     1
 10
892.9270158143522
 20
2872.485317285077
 11
891.3970158143525
 21
2872.485317285077
 72
     1
 10
891.3970158143525
 20
2872.485317285077
 11
891.3970158143525
 21
2699.408394208155
 72
     1
 10
891.3970158143525
 20
2699.408394208155
 11
892.0045158143519
 21
2698.785317285079
 72
     1
 10
892.0045158143519
 20
2698.785317285079
 11
894.6370158143523
 21
2696.085317285078
 72
     1
 10
894.6370158143523
 20
2696.085317285078
 11
896.4370158143522
 21
2696.085317285078
 72
     1
 10
896.4370158143522
 20
2696.085317285078
 11
893.8045158143518
 21
2698.785317285079
 72
     1
 10
893.8045158143516
 20
2698.785317285079
 11
892.9270158143522
 21
2699.685317285077
 97
        0
 75
     0
 76
     1
 52
-15.0
 41
457.2
 77
     0
 78
     1
 53
30.0
 43
0.0
 44
0.0
 45
-28.575
 46
49.49335182628066
 79
     0
 98
        1
 10
1906.95701581436
 20
2804.106644880164
  0
HATCH
  5
4F5
330
6C
100
AcDbEntity
  8
Kreskowanie (ISO)
100
AcDbHatch
 10
0.0
 20
0.0
 30
0.0
210
0.0
220
0.0
230
1.0
  2
ANSI31
 70
     0
 71
     0
 91
        1
 92
        1
 93
       19
 72
     1
 10
884.5570158143521
 20
2909.385317285078
 11
879.1570158143523
 21
2900.032242924206
 72
     1
 10
879.1570158143523
 20
2900.032242924206
 11
879.1570158143523
 21
2772.585317285078
 72
     1
 10
879.1570158143523
 20
2772.585317285078
 11
878.437015814352
 21
2770.785317285078
 72
     1
 10
878.4370158143522
 20
2770.785317285078
 11
878.4370158143522
 21
2698.785317285079
 72
     1
 10
878.4370158143522
 20
2698.785317285079
 11
878.4370158143522
 21
2693.385317285077
 72
     1
 10
878.4370158143522
 20
2693.385317285078
 11
874.6570158143523
 21
2693.385317285078
 72
     1
 10
874.6570158143523
 20
2693.385317285078
 11
873.1270158143523
 21
2693.385317285078
 72
     1
 10
873.1270158143523
 20
2693.385317285078
 11
873.1270158143523
 21
2684.385597727414
 72
     3
 10
873.1587886606751
 20
2686.185317284901
 11
-0.0317728463231316
 21
-1.799719557486718
 40
1.0
 50
0.000000000001211
 51
1.011413636910263
 73
     1
 72
     1
 10
873.1587886606771
 20
2684.385317285078
 11
895.955242968027
 21
2684.385317285078
 72
     3
 10
895.9552429680288
 20
2686.185317284926
 11
-0.0000000000019141
 21
-1.79999999984853
 40
1.0
 50
0.0
 51
1.011413636902819
 73
     1
 72
     1
 10
895.9870158143523
 20
2684.385597727414
 11
895.9870158143523
 21
2693.385317285078
 72
     1
 10
895.9870158143523
 20
2693.385317285078
 11
894.4570158143525
 21
2693.385317285078
 72
     1
 10
894.4570158143523
 20
2693.385317285078
 11
890.6770158143521
 21
2693.385317285078
 72
     1
 10
890.6770158143521
 20
2693.385317285078
 11
890.6770158143521
 21
2698.785317285079
 72
     1
 10
890.6770158143521
 20
2698.785317285079
 11
890.6770158143521
 21
2770.785317285078
 72
     1
 10
890.6770158143521
 20
2770.785317285078
 11
889.957015814352
 21
2772.585317285078
 72
     1
 10
889.9570158143523
 20
2772.585317285078
 11
889.9570158143523
 21
2900.032242924205
 72
     1
 10
889.9570158143523
 20
2900.032242924206
 11
884.5570158143521
 21
2909.385317285078
 97
        0
 75
     0
 76
     1
 52
105.0
 41
457.2
 77
     0
 78
     1
 53
150.0
 43
0.0
 44
0.0
 45
-28.575
 46
-49.49335182628068
 79
     0
 98
        1
 10
1906.95701581436
 20
2804.106644880164
  0
MTEXT
  5
4F6
102
{ACAD_XDICTIONARY
360
636
102
}
102
{ACAD_REACTORS
330
4F7
102
}
330
6C
100
AcDbEntity
  8
Symbol (ISO)
100
AcDbMText
 10
1329.605155667503
 20
3673.491438011487
 30
0.0
 40
36.0000005364418
 41
312.5056743621828
 71
     1
 72
     1
  1
{\U+015Bciana / a wall}
  7
wibo Tekst notatki (ISO)
 73
     1
 44
1.0
  0
LEADER
  5
4F7
330
6C
100
AcDbEntity
  8
Symbol (ISO)
100
AcDbLeader
  3
wibo Domyślne - Metoda 1b (ISO)$7
 73
     0
 74
     0
 75
     1
 40
48.35460112349469
 41
307.5594404459879
 76
     3
 10
826.1724109228799
 20
2968.785317285079
 30
0.0
 10
1270.889155667503
 20
3655.491437743267
 30
0.0
 10
1315.889155667503
 20
3655.491437743267
 30
0.0
340
4F6
213
0.0
223
-18.0000002682209
233
0.0
1001
ACAD
1000
DSTYLE
1002
{
1070
    77
1070
     0
1002
}
  0
MTEXT
  5
4F8
102
{ACAD_XDICTIONARY
360
638
102
}
102
{ACAD_REACTORS
330
4F9
102
}
330
6C
100
AcDbEntity
  8
Symbol (ISO)
100
AcDbMText
 10
1662.420790291773
 20
2063.442803326841
 30
0.0
 40
36.0000005364418
 41
577.0794582366942
 71
     1
 72
     1
  1
{skrzyd\U+0142o drzwi / door wing}
  7
wibo Tekst notatki (ISO)
 73
     1
 44
1.0
  0
LEADER
  5
4F9
330
6C
100
AcDbEntity
  8
Symbol (ISO)
100
AcDbLeader
  3
wibo Domyślne - Metoda 1b (ISO)$7
 73
     0
 74
     0
 75
     1
 40
47.84687781169799
 41
572.3250588976831
 76
     3
 10
1364.713125878037
 20
2483.145317285077
 30
0.0
 10
1603.704790291773
 20
2045.44280305862
 30
0.0
 10
1648.704790291773
 20
2045.44280305862
 30
0.0
340
4F8
213
0.0
223
-18.0000002682209
233
0.0
1001
ACAD
1000
DSTYLE
1002
{
1070
    77
1070
     0
1002
}
  0
MTEXT
  5
4FA
102
{ACAD_XDICTIONARY
360
63A
102
}
102
{ACAD_REACTORS
330
4FB
102
}
330
6C
100
AcDbEntity
  8
Symbol (ISO)
100
AcDbMText
 10
1441.93091832177
 20
3558.20565536336
 30
0.0
 40
36.0000005364418
 41
811.6628837585448
 71
     1
 72
     1
  1
{kotwa monta\U+017Cowa / assembly anchor}
  7
wibo Tekst notatki (ISO)
 73
     1
 44
1.0
  0
LEADER
  5
4FB
330
6C
100
AcDbEntity
  8
Symbol (ISO)
100
AcDbLeader
  3
wibo Domyślne - Metoda 1b (ISO)$7
 73
     0
 74
     0
 75
     1
 40
47.58092750551877
 41
808.3680442820224
 76
     3
 10
892.9270158143522
 20
2803.905317285078
 30
0.0
 10
1383.21491832177
 20
3540.205655095139
 30
0.0
 10
1428.21491832177
 20
3540.205655095139
 30
0.0
340
4FA
213
0.0
223
-18.0000002682209
233
0.0
1001
ACAD
1000
DSTYLE
1002
{
1070
    77
1070
     0
1002
}
  0
MTEXT
  5
4FC
102
{ACAD_REACTORS
330
4FD
102
}
330
6C
100
AcDbEntity
  8
Symbol (ISO)
100
AcDbMText
 10
1046.489861454113
 20
2072.895809785662
 30
0.0
 40
36.0000005364418
 41
313.9060020446777
 71
     1
 72
     1
  1
{zawias / hinge}
  7
wibo Tekst notatki (ISO)
 73
     1
 44
1.0
  0
LEADER
  5
4FD
330
6C
100
AcDbEntity
  8
Symbol (ISO)
100
AcDbLeader
  3
wibo Domyślne - Metoda 1b (ISO)$7
 73
     0
 74
     0
 75
     1
 40
47.84687781169799
 41
311.5003404375528
 76
     3
 10
907.9570158143519
 20
2507.985317285078
 30
0.0
 10
987.7738614541131
 20
2054.895809517441
 30
0.0
 10
1032.773861454113
 20
2054.895809517441
 30
0.0
340
4FC
213
0.0
223
-18.0000002682209
233
0.0
1001
ACAD
1000
DSTYLE
1002
{
1070
    77
1070
     0
1002
}
  0
MTEXT
  5
4FE
102
{ACAD_REACTORS
330
4FF
102
}
330
6C
100
AcDbEntity
  8
Symbol (ISO)
100
AcDbMText
 10
2626.149803501351
 20
2063.262143547293
 30
0.0
 40
36.0000005364418
 41
795.471696853638
 71
     1
 72
     1
  1
{rygiel + zamek / interlocking system}
  7
wibo Tekst notatki (ISO)
 73
     1
 44
1.0
  0
LEADER
  5
4FF
330
6C
100
AcDbEntity
  8
Symbol (ISO)
100
AcDbLeader
  3
wibo Domyślne - Metoda 1b (ISO)$7
 73
     0
 74
     0
 75
     1
 40
47.84687781169799
 41
789.267976838242
 76
     3
 10
2493.447759287767
 20
2441.745317285074
 30
0.0
 10
2567.433803501351
 20
2045.262143279072
 30
0.0
 10
2612.433803501351
 20
2045.262143279072
 30
0.0
340
4FE
213
0.0
223
-18.0000002682209
233
0.0
1001
ACAD
1000
DSTYLE
1002
{
1070
    77
1070
     0
1002
}
  0
MTEXT
  5
500
102
{ACAD_REACTORS
330
501
102
}
330
6C
100
AcDbEntity
  8
Symbol (ISO)
100
AcDbMText
 10
2949.56453377689
 20
2188.375005403865
 30
0.0
 40
36.0000005364418
 41
339.8411822319031
 71
     1
 72
     1
  1
{uszczelka / seal}
  7
wibo Tekst notatki (ISO)
 73
     1
 44
1.0
  0
LEADER
  5
501
330
6C
100
AcDbEntity
  8
Symbol (ISO)
100
AcDbLeader
  3
wibo Domyślne - Metoda 1b (ISO)$7
 73
     0
 74
     0
 75
     1
 40
45.453325056085
 41
333.4533293476194
 76
     3
 10
2785.875560750995
 20
2613.328282766018
 30
0.0
 10
2890.848533776891
 20
2170.375005135644
 30
0.0
 10
2935.848533776891
 20
2170.375005135644
 30
0.0
340
500
213
0.0
223
-18.0000002682209
233
0.0
1001
ACAD
1000
DSTYLE
1002
{
1070
    77
1070
     0
1002
}
  0
MTEXT
  5
502
102
{ACAD_REACTORS
330
503
102
}
330
6C
100
AcDbEntity
  8
Symbol (ISO)
100
AcDbMText
 10
1609.433604304205
 20
3444.281985884938
 30
0.0
 40
36.0000005364418
 41
447.5202655792236
 71
     1
 72
     1
  1
{futryna / door frame}
  7
wibo Tekst notatki (ISO)
 73
     1
 44
1.0
  0
LEADER
  5
503
330
6C
100
AcDbEntity
  8
Symbol (ISO)
100
AcDbLeader
  3
wibo Domyślne - Metoda 1b (ISO)$7
 73
     0
 74
     0
 75
     1
 40
47.82270051113624
 41
445.6118266535653
 76
     3
 10
1060.957015814352
 20
2691.765317285078
 30
0.0
 10
1550.717604304206
 20
3426.281985616718
 30
0.0
 10
1595.717604304206
 20
3426.281985616718
 30
0.0
340
502
213
0.0
223
-18.0000002682209
233
0.0
1001
ACAD
1000
DSTYLE
1002
{
1070
    77
1070
     0
1002
}
  0
ENDSEC
  0
SECTION
  2
OBJECTS
  0
DICTIONARY
  5
C
330
0
100
AcDbDictionary
281
     1
  3
ACAD_COLOR
350
63
  3
ACAD_GROUP
350
D
  3
ACAD_LAYOUT
350
62
  3
ACAD_MATERIAL
350
10
  3
ACAD_MLEADERSTYLE
350
66
  3
ACAD_MLINESTYLE
350
5F
  3
ACAD_PLOTSETTINGS
350
61
  3
ACAD_PLOTSTYLENAME
350
E
  3
ACAD_SCALELIST
350
42
  3
ACAD_TABLESTYLE
350
64
  3
ACAD_VISUALSTYLE
350
29
  3
ACDB_RECOMPOSE_DATA
350
602
  3
AcDbVariableDictionary
350
504
  3
AcmDictionary
350
5AF
  3
AMG
350
55E
  3
AMGSNAPSETTINGS
350
5EE
  0
DICTIONARY
  5
5F8
330
2
100
AcDbDictionary
280
     1
281
     1
  3
ACAD_LAYERSTATES
360
5F9
  0
DICTIONARY
  5
634
330
DA
100
AcDbDictionary
280
     1
281
     1
  3
ACAD_MTEXT_2008_RT
360
635
  0
DICTIONARY
  5
636
330
4F6
100
AcDbDictionary
280
     1
281
     1
  3
ACAD_MTEXT_2008_RT
360
637
  0
DICTIONARY
  5
638
330
4F8
100
AcDbDictionary
280
     1
281
     1
  3
ACAD_MTEXT_2008_RT
360
639
  0
DICTIONARY
  5
63A
330
4FA
100
AcDbDictionary
280
     1
281
     1
  3
ACAD_MTEXT_2008_RT
360
63B
  0
DICTIONARY
  5
63
102
{ACAD_REACTORS
330
C
102
}
330
C
100
AcDbDictionary
281
     1
  0
DICTIONARY
  5
D
102
{ACAD_REACTORS
330
C
102
}
330
C
100
AcDbDictionary
281
     1
  0
DICTIONARY
  5
62
102
{ACAD_REACTORS
330
C
102
}
330
C
100
AcDbDictionary
281
     1
  3
Layout1
350
6B
  3
Layout2
350
73
  3
Model
350
6F
  0
DICTIONARY
  5
10
102
{ACAD_REACTORS
330
C
102
}
330
C
100
AcDbDictionary
281
     1
  3
ByBlock
350
19
  3
ByLayer
350
11
  3
Global
350
21
  0
DICTIONARY
  5
66
102
{ACAD_REACTORS
330
C
102
}
330
C
100
AcDbDictionary
281
     1
  3
Standard
350
67
  0
DICTIONARY
  5
5F
102
{ACAD_REACTORS
330
C
102
}
330
C
100
AcDbDictionary
281
     1
  3
Standard
350
60
  0
DICTIONARY
  5
61
102
{ACAD_REACTORS
330
C
102
}
330
C
100
AcDbDictionary
281
     1
  0
ACDBDICTIONARYWDFLT
  5
E
102
{ACAD_REACTORS
330
C
102
}
330
C
100
AcDbDictionary
281
     1
  3
Normal
350
F
100
AcDbDictionaryWithDefault
340
F
  0
DICTIONARY
  5
42
102
{ACAD_REACTORS
330
C
102
}
330
C
100
AcDbDictionary
281
     1
  3
A0
350
43
  3
A1
350
44
  3
A2
350
45
  3
A3
350
46
  3
A4
350
47
  3
A5
350
48
  3
A6
350
49
  3
A7
350
4A
  3
A8
350
4B
  3
A9
350
4C
  3
B0
350
4D
  3
B1
350
4E
  3
B2
350
4F
  3
B3
350
50
  3
B4
350
51
  3
B5
350
52
  3
B6
350
53
  0
DICTIONARY
  5
64
102
{ACAD_REACTORS
330
C
102
}
330
C
100
AcDbDictionary
281
     1
  3
Standard
350
65
  0
DICTIONARY
  5
29
102
{ACAD_REACTORS
330
C
102
}
330
C
100
AcDbDictionary
281
     1
  3
2dWireframe
350
2F
  3
Basic
350
2E
  3
Brighten
350
35
  3
ColorChange
350
39
  3
Conceptual
350
32
  3
Dim
350
34
  3
EdgeColorOff
350
41
  3
Facepattern
350
38
  3
Flat
350
2A
  3
FlatWithEdges
350
2B
  3
Gouraud
350
2C
  3
GouraudWithEdges
350
2D
  3
Hidden
350
31
  3
JitterOff
350
3F
  3
Linepattern
350
37
  3
OverhangOff
350
40
  3
Realistic
350
33
  3
Shaded
350
3E
  3
Shaded with edges
350
3D
  3
Shades of Gray
350
3A
  3
Sketchy
350
3B
  3
Thicken
350
36
  3
Wireframe
350
30
  3
X-Ray
350
3C
  0
XRECORD
  5
602
102
{ACAD_REACTORS
330
C
102
}
330
C
100
AcDbXrecord
280
     1
 90
        1
330
65
  0
DICTIONARY
  5
504
102
{ACAD_REACTORS
330
C
102
}
330
C
100
AcDbDictionary
281
     1
  3
CANNOSCALE
350
508
  3
CMLEADERSTYLE
350
506
  3
CTABLESTYLE
350
505
  3
DIMASSOC
350
50F
  3
HIDETEXT
350
50E
  3
INDEXCTL
350
50D
  3
LAYEREVAL
350
50A
  3
LAYERNOTIFY
350
50B
  3
LIGHTINGUNITS
350
509
  3
MSLTSCALE
350
507
  3
SORTENTS
350
50C
  3
XCLIPFRAME
350
600
  0
DICTIONARY
  5
5AF
102
{ACAD_REACTORS
330
C
102
}
330
C
100
AcDbDictionary
281
     1
  3
AcmStdDictionary
350
5B8
  0
DICTIONARY
  5
55E
102
{ACAD_REACTORS
330
C
102
}
330
C
100
AcDbDictionary
281
     1
  0
DICTIONARY
  5
5EE
102
{ACAD_REACTORS
330
C
102
}
330
C
100
AcDbDictionary
281
     1
  0
DICTIONARY
  5
5F9
102
{ACAD_REACTORS
330
5F8
102
}
330
5F8
100
AcDbDictionary
281
     1
  0
XRECORD
  5
635
102
{ACAD_REACTORS
330
634
102
}
330
634
100
AcDbXrecord
280
     1
 40
45613.0
  1
 Ilość kompletów
  0
XRECORD
  5
637
102
{ACAD_REACTORS
330
636
102
}
330
636
100
AcDbXrecord
280
     1
 40
23366.0
  1
{ściana / a wall}
  0
XRECORD
  5
639
102
{ACAD_REACTORS
330
638
102
}
330
638
100
AcDbXrecord
280
     1
 40
53471.0
  1
{skrzydło drzwi / door wing}
  0
XRECORD
  5
63B
102
{ACAD_REACTORS
330
63A
102
}
330
63A
100
AcDbXrecord
280
     1
 40
79963.0
  1
{kotwa montażowa / assembly anchor}
  0
LAYOUT
  5
6B
102
{ACAD_REACTORS
330
62
102
}
330
62
100
AcDbPlotSettings
  1

  2

  4

  6

 40
0.0
 41
0.0
 42
0.0
 43
0.0
 44
0.0
 45
0.0
 46
0.0
 47
0.0
 48
0.0
 49
0.0
140
0.0
141
0.0
142
1.0
143
1.0
 70
   688
 72
     0
 73
     0
 74
     5
  7

 75
    16
147
1.0
 76
     0
 77
     2
 78
   300
148
0.0
149
0.0
100
AcDbLayout
  1
Layout1
 70
     1
 71
     1
 10
0.0
 20
0.0
 11
3780.0
 21
5346.0
 12
0.0
 22
0.0
 32
0.0
 14
0.0
 24
0.0
 34
0.0
 15
3780.0
 25
5346.0
 35
0.0
146
0.0
 13
0.0
 23
0.0
 33
0.0
 16
1.0
 26
0.0
 36
0.0
 17
0.0
 27
1.0
 37
0.0
 76
     0
330
68
  0
LAYOUT
  5
73
102
{ACAD_REACTORS
330
62
102
}
330
62
100
AcDbPlotSettings
  1

  2

  4

  6

 40
0.0
 41
0.0
 42
0.0
 43
0.0
 44
0.0
 45
0.0
 46
0.0
 47
0.0
 48
0.0
 49
0.0
140
0.0
141
0.0
142
1.0
143
1.0
 70
   688
 72
     0
 73
     0
 74
     5
  7

 75
    16
147
1.0
 76
     0
 77
     2
 78
   300
148
0.0
149
0.0
100
AcDbLayout
  1
Layout2
 70
     1
 71
     2
 10
0.0
 20
0.0
 11
12.0
 21
9.0
 12
0.0
 22
0.0
 32
0.0
 14
0.0
 24
0.0
 34
0.0
 15
0.0
 25
0.0
 35
0.0
146
0.0
 13
0.0
 23
0.0
 33
0.0
 16
1.0
 26
0.0
 36
0.0
 17
0.0
 27
1.0
 37
0.0
 76
     0
330
70
  0
LAYOUT
  5
6F
102
{ACAD_XDICTIONARY
360
5FE
102
}
102
{ACAD_REACTORS
330
62
102
}
330
62
100
AcDbPlotSettings
  1

  2

  4

  6

 40
0.0
 41
0.0
 42
0.0
 43
0.0
 44
0.0
 45
0.0
 46
0.0
 47
0.0
 48
0.0
 49
0.0
140
0.0
141
0.0
142
1.0
143
1.0
 70
  1712
 72
     0
 73
     0
 74
     0
  7

 75
     0
147
1.0
 76
     0
 77
     2
 78
   300
148
0.0
149
0.0
100
AcDbLayout
  1
Model
 70
     1
 71
     0
 10
0.0
 20
0.0
 11
12.0
 21
9.0
 12
0.0
 22
0.0
 32
0.0
 14
0.0
 24
0.0
 34
0.0
 15
0.0
 25
0.0
 35
0.0
146
0.0
 13
0.0
 23
0.0
 33
0.0
 16
1.0
 26
0.0
 36
0.0
 17
0.0
 27
1.0
 37
0.0
 76
     0
330
6C
331
57
  0
MATERIAL
  5
19
102
{ACAD_XDICTIONARY
360
1A
102
}
102
{ACAD_REACTORS
330
10
102
}
330
10
100
AcDbMaterial
  1
ByBlock
 72
     0
 43
0.0208333333333333
 43
0.0
 43
0.0
 43
0.0
 43
0.0
 43
0.0208333333333333
 43
0.0
 43
0.0
 43
0.0
 43
0.0
 43
1.0
 43
0.0
 43
0.0
 43
0.0
 43
0.0
 43
1.0
 77
     0
 47
0.0208333333333333
 47
0.0
 47
0.0
 47
0.0
 47
0.0
 47
0.0208333333333333
 47
0.0
 47
0.0
 47
0.0
 47
0.0
 47
1.0
 47
0.0
 47
0.0
 47
0.0
 47
0.0
 47
1.0
171
     0
 49
0.0208333333333333
 49
0.0
 49
0.0
 49
0.0
 49
0.0
 49
0.0208333333333333
 49
0.0
 49
0.0
 49
0.0
 49
0.0
 49
1.0
 49
0.0
 49
0.0
 49
0.0
 49
0.0
 49
1.0
175
     0
142
0.0208333333333333
142
0.0
142
0.0
142
0.0
142
0.0
142
0.0208333333333333
142
0.0
142
0.0
142
0.0
142
0.0
142
1.0
142
0.0
142
0.0
142
0.0
142
0.0
142
1.0
179
     0
144
0.0208333333333333
144
0.0
144
0.0
144
0.0
144
0.0
144
0.0208333333333333
144
0.0
144
0.0
144
0.0
144
0.0
144
1.0
144
0.0
144
0.0
144
0.0
144
0.0
144
1.0
147
0.0208333333333333
147
0.0
147
0.0
147
0.0
147
0.0
147
0.0208333333333333
147
0.0
147
0.0
147
0.0
147
0.0
147
1.0
147
0.0
147
0.0
147
0.0
147
0.0
147
1.0
  0
MATERIAL
  5
11
102
{ACAD_XDICTIONARY
360
12
102
}
102
{ACAD_REACTORS
330
10
102
}
330
10
100
AcDbMaterial
  1
ByLayer
 72
     0
 43
0.0208333333333333
 43
0.0
 43
0.0
 43
0.0
 43
0.0
 43
0.0208333333333333
 43
0.0
 43
0.0
 43
0.0
 43
0.0
 43
1.0
 43
0.0
 43
0.0
 43
0.0
 43
0.0
 43
1.0
 77
     0
 47
0.0208333333333333
 47
0.0
 47
0.0
 47
0.0
 47
0.0
 47
0.0208333333333333
 47
0.0
 47
0.0
 47
0.0
 47
0.0
 47
1.0
 47
0.0
 47
0.0
 47
0.0
 47
0.0
 47
1.0
171
     0
 49
0.0208333333333333
 49
0.0
 49
0.0
 49
0.0
 49
0.0
 49
0.0208333333333333
 49
0.0
 49
0.0
 49
0.0
 49
0.0
 49
1.0
 49
0.0
 49
0.0
 49
0.0
 49
0.0
 49
1.0
175
     0
142
0.0208333333333333
142
0.0
142
0.0
142
0.0
142
0.0
142
0.0208333333333333
142
0.0
142
0.0
142
0.0
142
0.0
142
1.0
142
0.0
142
0.0
142
0.0
142
0.0
142
1.0
179
     0
144
0.0208333333333333
144
0.0
144
0.0
144
0.0
144
0.0
144
0.0208333333333333
144
0.0
144
0.0
144
0.0
144
0.0
144
1.0
144
0.0
144
0.0
144
0.0
144
0.0
144
1.0
147
0.0208333333333333
147
0.0
147
0.0
147
0.0
147
0.0
147
0.0208333333333333
147
0.0
147
0.0
147
0.0
147
0.0
147
1.0
147
0.0
147
0.0
147
0.0
147
0.0
147
1.0
  0
MATERIAL
  5
21
102
{ACAD_XDICTIONARY
360
22
102
}
102
{ACAD_REACTORS
330
10
102
}
330
10
100
AcDbMaterial
  1
Global
 72
     0
 43
0.0208333333333333
 43
0.0
 43
0.0
 43
0.0
 43
0.0
 43
0.0208333333333333
 43
0.0
 43
0.0
 43
0.0
 43
0.0
 43
1.0
 43
0.0
 43
0.0
 43
0.0
 43
0.0
 43
1.0
 77
     0
 47
0.0208333333333333
 47
0.0
 47
0.0
 47
0.0
 47
0.0
 47
0.0208333333333333
 47
0.0
 47
0.0
 47
0.0
 47
0.0
 47
1.0
 47
0.0
 47
0.0
 47
0.0
 47
0.0
 47
1.0
171
     0
 49
0.0208333333333333
 49
0.0
 49
0.0
 49
0.0
 49
0.0
 49
0.0208333333333333
 49
0.0
 49
0.0
 49
0.0
 49
0.0
 49
1.0
 49
0.0
 49
0.0
 49
0.0
 49
0.0
 49
1.0
175
     0
142
0.0208333333333333
142
0.0
142
0.0
142
0.0
142
0.0
142
0.0208333333333333
142
0.0
142
0.0
142
0.0
142
0.0
142
1.0
142
0.0
142
0.0
142
0.0
142
0.0
142
1.0
179
     0
144
0.0208333333333333
144
0.0
144
0.0
144
0.0
144
0.0
144
0.0208333333333333
144
0.0
144
0.0
144
0.0
144
0.0
144
1.0
144
0.0
144
0.0
144
0.0
144
0.0
144
1.0
147
0.0208333333333333
147
0.0
147
0.0
147
0.0
147
0.0
147
0.0208333333333333
147
0.0
147
0.0
147
0.0
147
0.0
147
1.0
147
0.0
147
0.0
147
0.0
147
0.0
147
1.0
  0
MLEADERSTYLE
  5
67
102
{ACAD_REACTORS
330
66
102
}
330
66
100
AcDbMLeaderStyle
170
     2
171
     1
172
     0
 90
        2
 40
0.0
 41
0.0
173
     1
 91
-1056964608
340
5B
 92
       -2
290
     1
 42
0.09
291
     1
 43
0.36
  3
Standard
 44
0.18
300

342
55
174
     1
178
     6
175
     1
176
     0
 93
-1056964608
 45
0.18
292
     0
297
     0
 46
0.18
 94
-1056964608
 47
1.0
 49
1.0
140
1.0
293
     1
141
0.0
294
     1
177
     0
142
1.0
295
     0
296
     0
143
0.125
1001
ACAD_MLEADERVER
1070
     2
  0
MLINESTYLE
  5
60
102
{ACAD_REACTORS
330
5F
102
}
330
5F
100
AcDbMlineStyle
  2
STANDARD
 70
     0
  3

 62
   256
 51
90.0
 52
90.0
 71
     2
 49
0.5
 62
   256
  6
BYLAYER
 49
-0.5
 62
   256
  6
BYLAYER
  0
ACDBPLACEHOLDER
  5
F
102
{ACAD_REACTORS
330
E
102
}
330
E
  0
SCALE
  5
43
102
{ACAD_REACTORS
330
42
102
}
330
42
100
AcDbScale
 70
     0
300
1:1
140
1.0
141
1.0
290
     1
  0
SCALE
  5
44
102
{ACAD_REACTORS
330
42
102
}
330
42
100
AcDbScale
 70
     0
300
1/128" = 1'-0"
140
0.0078125
141
12.0
290
     0
  0
SCALE
  5
45
102
{ACAD_REACTORS
330
42
102
}
330
42
100
AcDbScale
 70
     0
300
1/64" = 1'-0"
140
0.015625
141
12.0
290
     0
  0
SCALE
  5
46
102
{ACAD_REACTORS
330
42
102
}
330
42
100
AcDbScale
 70
     0
300
1/32" = 1'-0"
140
0.03125
141
12.0
290
     0
  0
SCALE
  5
47
102
{ACAD_REACTORS
330
42
102
}
330
42
100
AcDbScale
 70
     0
300
1/16" = 1'-0"
140
0.0625
141
12.0
290
     0
  0
SCALE
  5
48
102
{ACAD_REACTORS
330
42
102
}
330
42
100
AcDbScale
 70
     0
300
3/32" = 1'-0"
140
0.09375
141
12.0
290
     0
  0
SCALE
  5
49
102
{ACAD_REACTORS
330
42
102
}
330
42
100
AcDbScale
 70
     0
300
1/8" = 1'-0"
140
0.125
141
12.0
290
     0
  0
SCALE
  5
4A
102
{ACAD_REACTORS
330
42
102
}
330
42
100
AcDbScale
 70
     0
300
3/16" = 1'-0"
140
0.1875
141
12.0
290
     0
  0
SCALE
  5
4B
102
{ACAD_REACTORS
330
42
102
}
330
42
100
AcDbScale
 70
     0
300
1/4" = 1'-0"
140
0.25
141
12.0
290
     0
  0
SCALE
  5
4C
102
{ACAD_REACTORS
330
42
102
}
330
42
100
AcDbScale
 70
     0
300
3/8" = 1'-0"
140
0.375
141
12.0
290
     0
  0
SCALE
  5
4D
102
{ACAD_REACTORS
330
42
102
}
330
42
100
AcDbScale
 70
     0
300
1/2" = 1'-0"
140
0.5
141
12.0
290
     0
  0
SCALE
  5
4E
102
{ACAD_REACTORS
330
42
102
}
330
42
100
AcDbScale
 70
     0
300
3/4" = 1'-0"
140
0.75
141
12.0
290
     0
  0
SCALE
  5
4F
102
{ACAD_REACTORS
330
42
102
}
330
42
100
AcDbScale
 70
     0
300
1" = 1'-0"
140
1.0
141
12.0
290
     0
  0
SCALE
  5
50
102
{ACAD_REACTORS
330
42
102
}
330
42
100
AcDbScale
 70
     0
300
1-1/2" = 1'-0"
140
1.5
141
12.0
290
     0
  0
SCALE
  5
51
102
{ACAD_REACTORS
330
42
102
}
330
42
100
AcDbScale
 70
     0
300
3" = 1'-0"
140
3.0
141
12.0
290
     0
  0
SCALE
  5
52
102
{ACAD_REACTORS
330
42
102
}
330
42
100
AcDbScale
 70
     0
300
6" = 1'-0"
140
6.0
141
12.0
290
     0
  0
SCALE
  5
53
102
{ACAD_REACTORS
330
42
102
}
330
42
100
AcDbScale
 70
     0
300
1'-0" = 1'-0"
140
12.0
141
12.0
290
     0
  0
TABLESTYLE
  5
65
102
{ACAD_XDICTIONARY
360
511
102
}
102
{ACAD_REACTORS
330
64
102
}
330
64
100
AcDbTableStyle
  3
Standard
 70
     0
 71
     0
 40
0.06
 41
0.06
280
     0
281
     0
  7
Standard
140
0.18
170
     2
 62
     0
 63
     7
283
     0
274
    -2
284
     1
 64
     0
275
    -2
285
     1
 65
     0
276
    -2
286
     1
 66
     0
277
    -2
287
     1
 67
     0
278
    -2
288
     1
 68
     0
279
    -2
289
     1
 69
     0
  7
Standard
140
0.25
170
     5
 62
     0
 63
     7
283
     0
274
    -2
284
     1
 64
     0
275
    -2
285
     1
 65
     0
276
    -2
286
     1
 66
     0
277
    -2
287
     1
 67
     0
278
    -2
288
     1
 68
     0
279
    -2
289
     1
 69
     0
  7
Standard
140
0.18
170
     5
 62
     0
 63
     7
283
     0
274
    -2
284
     1
 64
     0
275
    -2
285
     1
 65
     0
276
    -2
286
     1
 66
     0
277
    -2
287
     1
 67
     0
278
    -2
288
     1
 68
     0
279
    -2
289
     1
 69
     0
  0
VISUALSTYLE
  5
2F
102
{ACAD_XDICTIONARY
360
60D
102
}
102
{ACAD_REACTORS
330
29
102
}
330
29
100
AcDbVisualStyle
  2

 70
     4
 71
     0
 72
     2
 73
     0
 90
        0
 40
-0.6
 41
-30.0
 62
     5
 63
     7
 74
     1
 91
        4
 64
     7
 65
   257
 75
     1
175
     1
 42
1.0
 92
        0
 66
   257
 43
1.0
 76
     1
 77
     6
 78
     2
 67
     7
 79
     5
170
     0
171
     0
290
     0
174
     0
 93
        1
 44
0.0
173
     0
291
     0
 45
0.0
1001
ACAD
1000
AcDbSavedByObjectVersion
1070
     0
  0
VISUALSTYLE
  5
2E
102
{ACAD_XDICTIONARY
360
60B
102
}
102
{ACAD_REACTORS
330
29
102
}
330
29
100
AcDbVisualStyle
  2

 70
     7
 71
     1
 72
     0
 73
     1
 90
        0
 40
-0.6
 41
-30.0
 62
     5
 63
     7
 74
     0
 91
        4
 64
     7
 65
   257
 75
     1
175
     1
 42
1.0
 92
        8
 66
     7
 43
1.0
 76
     1
 77
     6
 78
     2
 67
     7
 79
     5
170
     0
171
     0
290
     0
174
     0
 93
        1
 44
0.0
173
     0
291
     1
 45
0.0
1001
ACAD
1000
AcDbSavedByObjectVersion
1070
     0
  0
VISUALSTYLE
  5
35
102
{ACAD_XDICTIONARY
360
619
102
}
102
{ACAD_REACTORS
330
29
102
}
330
29
100
AcDbVisualStyle
  2

 70
    12
 71
     2
 72
     2
 73
     0
 90
        0
 40
-0.6
 41
-30.0
 62
     5
 63
     7
 74
     1
 91
        4
 64
     7
 65
   257
 75
     1
175
     1
 42
1.0
 92
        8
 66
     7
 43
1.0
 76
     1
 77
     6
 78
     2
 67
     7
 79
     5
170
     0
171
     0
290
     0
174
     0
 93
        1
 44
50.0
173
     0
291
     1
 45
0.0
1001
ACAD
1000
AcDbSavedByObjectVersion
1070
     0
  0
VISUALSTYLE
  5
39
102
{ACAD_XDICTIONARY
360
621
102
}
102
{ACAD_REACTORS
330
29
102
}
330
29
100
AcDbVisualStyle
  2

 70
    16
 71
     2
 72
     2
 73
     3
 90
        0
 40
-0.6
 41
-30.0
 62
     5
 63
     8
 74
     1
 91
        4
 64
     7
 65
   257
 75
     1
175
     1
 42
1.0
 92
        8
 66
     8
 43
1.0
 76
     1
 77
     6
 78
     2
 67
     7
 79
     5
170
     0
171
     0
290
     0
174
     0
 93
        1
 44
0.0
173
     0
291
     1
 45
0.0
1001
ACAD
1000
AcDbSavedByObjectVersion
1070
     0
  0
VISUALSTYLE
  5
32
102
{ACAD_XDICTIONARY
360
613
102
}
102
{ACAD_REACTORS
330
29
102
}
330
29
100
AcDbVisualStyle
  2

 70
     9
 71
     3
 72
     2
 73
     0
 90
        0
 40
-0.6
 41
-30.0
 62
     5
 63
     7
 74
     2
 91
        2
 64
     7
 65
   257
 75
     1
175
     1
 42
179.0
 92
        8
 66
     7
 43
1.0
 76
     1
 77
     6
 78
     2
 67
     7
 79
     3
170
     0
171
     0
290
     0
174
     0
 93
        1
 44
0.0
173
     0
291
     0
 45
0.0
1001
ACAD
1000
AcDbSavedByObjectVersion
1070
     0
  0
VISUALSTYLE
  5
34
102
{ACAD_XDICTIONARY
360
617
102
}
102
{ACAD_REACTORS
330
29
102
}
330
29
100
AcDbVisualStyle
  2

 70
    11
 71
     2
 72
     2
 73
     0
 90
        0
 40
-0.6
 41
-30.0
 62
     5
 63
     7
 74
     1
 91
        4
 64
     7
 65
   257
 75
     1
175
     1
 42
1.0
 92
        8
 66
     7
 43
1.0
 76
     1
 77
     6
 78
     2
 67
     7
 79
     5
170
     0
171
     0
290
     0
174
     0
 93
        1
 44
-50.0
173
     0
291
     1
 45
0.0
1001
ACAD
1000
AcDbSavedByObjectVersion
1070
     0
  0
VISUALSTYLE
  5
41
102
{ACAD_XDICTIONARY
360
631
102
}
102
{ACAD_REACTORS
330
29
102
}
330
29
100
AcDbVisualStyle
  2

 70
    22
 71
     2
 72
     2
 73
     0
 90
        0
 40
-0.6
 41
-30.0
 62
     5
 63
     7
 74
     1
 91
        4
 64
     7
 65
   257
 75
     1
175
     1
 42
1.0
 92
        8
 66
     7
 43
1.0
 76
     1
 77
     6
 78
     2
 67
     7
 79
     5
170
     0
171
     0
290
     0
174
     0
 93
        1
 44
0.0
173
     0
291
     1
 45
0.0
1001
ACAD
1000
AcDbSavedByObjectVersion
1070
     0
  0
VISUALSTYLE
  5
38
102
{ACAD_XDICTIONARY
360
61F
102
}
102
{ACAD_REACTORS
330
29
102
}
330
29
100
AcDbVisualStyle
  2

 70
    15
 71
     2
 72
     2
 73
     0
 90
        0
 40
-0.6
 41
-30.0
 62
     5
 63
     7
 74
     1
 91
        4
 64
     7
 65
   257
 75
     1
175
     1
 42
1.0
 92
        8
 66
     7
 43
1.0
 76
     1
 77
     6
 78
     2
 67
     7
 79
     5
170
     0
171
     0
290
     0
174
     0
 93
        1
 44
0.0
173
     0
291
     1
 45
0.0
1001
ACAD
1000
AcDbSavedByObjectVersion
1070
     0
  0
VISUALSTYLE
  5
2A
102
{ACAD_XDICTIONARY
360
603
102
}
102
{ACAD_REACTORS
330
29
102
}
330
29
100
AcDbVisualStyle
  2

 70
     0
 71
     2
 72
     1
 73
     1
 90
        2
 40
-0.6
 41
30.0
 62
     5
 63
     7
 74
     0
 91
        0
 64
     7
 65
   257
 75
     1
175
     1
 42
1.0
 92
        8
 66
     7
 43
1.0
 76
     1
 77
     6
 78
     2
 67
     7
 79
     5
170
     0
171
     0
290
     0
174
     0
 93
       13
 44
0.0
173
     0
291
     1
 45
0.0
1001
ACAD
1000
AcDbSavedByObjectVersion
1070
     0
  0
VISUALSTYLE
  5
2B
102
{ACAD_XDICTIONARY
360
605
102
}
102
{ACAD_REACTORS
330
29
102
}
330
29
100
AcDbVisualStyle
  2

 70
     1
 71
     2
 72
     1
 73
     1
 90
        2
 40
-0.6
 41
30.0
 62
     5
 63
     7
 74
     1
 91
        0
 64
     7
 65
   257
 75
     1
175
     1
 42
1.0
 92
        0
 66
   257
 43
1.0
 76
     1
 77
     6
 78
     2
 67
     7
 79
     5
170
     0
171
     0
290
     0
174
     0
 93
       13
 44
0.0
173
     0
291
     1
 45
0.0
1001
ACAD
1000
AcDbSavedByObjectVersion
1070
     0
  0
VISUALSTYLE
  5
2C
102
{ACAD_XDICTIONARY
360
607
102
}
102
{ACAD_REACTORS
330
29
102
}
330
29
100
AcDbVisualStyle
  2

 70
     2
 71
     2
 72
     2
 73
     1
 90
        2
 40
-0.6
 41
30.0
 62
     5
 63
     7
 74
     0
 91
        0
 64
     7
 65
   257
 75
     1
175
     1
 42
1.0
 92
        0
 66
     7
 43
1.0
 76
     1
 77
     6
 78
     2
 67
     7
 79
     5
170
     0
171
     0
290
     0
174
     0
 93
       13
 44
0.0
173
     0
291
     1
 45
0.0
1001
ACAD
1000
AcDbSavedByObjectVersion
1070
     0
  0
VISUALSTYLE
  5
2D
102
{ACAD_XDICTIONARY
360
609
102
}
102
{ACAD_REACTORS
330
29
102
}
330
29
100
AcDbVisualStyle
  2

 70
     3
 71
     2
 72
     2
 73
     1
 90
        2
 40
-0.6
 41
30.0
 62
     5
 63
     7
 74
     1
 91
        0
 64
     7
 65
   257
 75
     1
175
     1
 42
1.0
 92
        0
 66
   257
 43
1.0
 76
     1
 77
     6
 78
     2
 67
     7
 79
     5
170
     0
171
     0
290
     0
174
     0
 93
       13
 44
0.0
173
     0
291
     1
 45
0.0
1001
ACAD
1000
AcDbSavedByObjectVersion
1070
     0
  0
VISUALSTYLE
  5
31
102
{ACAD_XDICTIONARY
360
611
102
}
102
{ACAD_REACTORS
330
29
102
}
330
29
100
AcDbVisualStyle
  2

 70
     6
 71
     1
 72
     2
 73
     2
 90
        0
 40
-0.6
 41
-30.0
 62
     5
 63
     7
 74
     2
 91
        2
 64
     7
 65
   257
 75
     2
175
     1
 42
40.0
 92
        0
 66
   257
 43
1.0
 76
     1
 77
     6
 78
     2
 67
     7
 79
     3
170
     0
171
     0
290
     0
174
     0
 93
        1
 44
0.0
173
     0
291
     0
 45
0.0
1001
ACAD
1000
AcDbSavedByObjectVersion
1070
     0
  0
VISUALSTYLE
  5
3F
102
{ACAD_XDICTIONARY
360
62D
102
}
102
{ACAD_REACTORS
330
29
102
}
330
29
100
AcDbVisualStyle
  2

 70
    20
 71
     2
 72
     2
 73
     0
 90
        0
 40
-0.6
 41
-30.0
 62
     5
 63
     7
 74
     1
 91
        4
 64
     7
 65
   257
 75
     1
175
     1
 42
1.0
 92
       10
 66
     7
 43
1.0
 76
     1
 77
     6
 78
     2
 67
     7
 79
     5
170
     0
171
     0
290
     0
174
     0
 93
        1
 44
0.0
173
     0
291
     1
 45
0.0
1001
ACAD
1000
AcDbSavedByObjectVersion
1070
     0
  0
VISUALSTYLE
  5
37
102
{ACAD_XDICTIONARY
360
61D
102
}
102
{ACAD_REACTORS
330
29
102
}
330
29
100
AcDbVisualStyle
  2

 70
    14
 71
     2
 72
     2
 73
     0
 90
        0
 40
-0.6
 41
-30.0
 62
     5
 63
     7
 74
     1
 91
        4
 64
     7
 65
   257
 75
     7
175
     7
 42
1.0
 92
        8
 66
     7
 43
1.0
 76
     1
 77
     6
 78
     2
 67
     7
 79
     5
170
     0
171
     0
290
     0
174
     0
 93
        1
 44
0.0
173
     0
291
     1
 45
0.0
1001
ACAD
1000
AcDbSavedByObjectVersion
1070
     0
  0
VISUALSTYLE
  5
40
102
{ACAD_XDICTIONARY
360
62F
102
}
102
{ACAD_REACTORS
330
29
102
}
330
29
100
AcDbVisualStyle
  2

 70
    21
 71
     2
 72
     2
 73
     0
 90
        0
 40
-0.6
 41
-30.0
 62
     5
 63
     7
 74
     1
 91
        4
 64
     7
 65
   257
 75
     1
175
     1
 42
1.0
 92
        9
 66
     7
 43
1.0
 76
     1
 77
     6
 78
     2
 67
     7
 79
     5
170
     0
171
     0
290
     0
174
     0
 93
        1
 44
0.0
173
     0
291
     1
 45
0.0
1001
ACAD
1000
AcDbSavedByObjectVersion
1070
     0
  0
VISUALSTYLE
  5
33
102
{ACAD_XDICTIONARY
360
615
102
}
102
{ACAD_REACTORS
330
29
102
}
330
29
100
AcDbVisualStyle
  2

 70
     8
 71
     2
 72
     3
 73
     0
 90
        2
 40
-0.6
 41
30.0
 62
     5
 63
     7
 74
     0
 91
        0
 64
     7
 65
   257
 75
     1
175
     1
 42
1.0
 92
        8
 66
   257
 43
1.0
 76
     1
 77
     6
 78
     2
 67
     7
 79
     3
170
     0
171
     0
290
     0
174
     0
 93
       13
 44
0.0
173
     0
291
     0
 45
0.0
1001
ACAD
1000
AcDbSavedByObjectVersion
1070
     0
  0
VISUALSTYLE
  5
3E
102
{ACAD_XDICTIONARY
360
62B
102
}
102
{ACAD_REACTORS
330
29
102
}
330
29
100
AcDbVisualStyle
  2

 70
    27
 71
     2
 72
     2
 73
     1
 90
        2
 40
-0.6
 41
30.0
 62
     5
 63
     7
 74
     0
 91
        4
 64
     7
 65
   257
 75
     1
175
     1
 42
1.0
 92
        8
 66
   257
 43
1.0
 76
     1
 77
     6
 78
     2
 67
     8
 79
     3
170
     0
171
     0
290
     0
174
     0
 93
        5
 44
0.0
173
     0
291
     0
 45
0.0
1001
ACAD
1000
AcDbSavedByObjectVersion
1070
     0
  0
VISUALSTYLE
  5
3D
102
{ACAD_XDICTIONARY
360
629
102
}
102
{ACAD_REACTORS
330
29
102
}
330
29
100
AcDbVisualStyle
  2

 70
    26
 71
     2
 72
     2
 73
     1
 90
        2
 40
-0.6
 41
30.0
 62
     5
 63
     7
 74
     1
 91
       10
 64
     7
 65
   257
 75
     2
175
     1
 42
1.0
 92
        8
 66
   257
 43
1.0
 76
     1
 77
     6
 78
     2
 67
     7
 79
     3
170
     0
171
     0
290
     0
174
     0
 93
        5
 44
0.0
173
     0
291
     0
 45
0.0
1001
ACAD
1000
AcDbSavedByObjectVersion
1070
     0
  0
VISUALSTYLE
  5
3A
102
{ACAD_XDICTIONARY
360
623
102
}
102
{ACAD_REACTORS
330
29
102
}
330
29
100
AcDbVisualStyle
  2

 70
    23
 71
     2
 72
     2
 73
     3
 90
        0
 40
-0.6
 41
-30.0
 62
     5
 63
     7
 74
     2
 91
        2
 64
     7
 65
     7
 75
     1
175
     1
 42
40.0
 92
        8
 66
     7
 43
1.0
 76
     1
 77
     6
 78
     2
 67
     7
 79
     3
170
     0
171
     0
290
     0
174
     0
 93
        1
 44
0.0
173
     0
291
     0
 45
0.0
1001
ACAD
1000
AcDbSavedByObjectVersion
1070
     0
  0
VISUALSTYLE
  5
3B
102
{ACAD_XDICTIONARY
360
625
102
}
102
{ACAD_REACTORS
330
29
102
}
330
29
100
AcDbVisualStyle
  2

 70
    24
 71
     1
 72
     2
 73
     2
 90
        0
 40
-0.6
 41
-30.0
 62
     5
 63
     7
 74
     2
 91
        2
 64
     7
 65
     7
 75
     1
175
     1
 42
40.0
 92
       11
 66
     7
 43
1.0
 76
     1
 77
     6
 78
     2
 67
     7
 79
     6
170
     0
171
     0
290
     0
174
     0
 93
        1
 44
0.0
173
     0
291
     0
 45
0.0
1001
ACAD
1000
AcDbSavedByObjectVersion
1070
     0
  0
VISUALSTYLE
  5
36
102
{ACAD_XDICTIONARY
360
61B
102
}
102
{ACAD_REACTORS
330
29
102
}
330
29
100
AcDbVisualStyle
  2

 70
    13
 71
     2
 72
     2
 73
     0
 90
        0
 40
-0.6
 41
-30.0
 62
     5
 63
     7
 74
     1
 91
        4
 64
     7
 65
   257
 75
     1
175
     1
 42
1.0
 92
       12
 66
     7
 43
1.0
 76
     1
 77
     6
 78
     2
 67
     7
 79
     5
170
     0
171
     0
290
     0
174
     0
 93
        1
 44
0.0
173
     0
291
     1
 45
0.0
1001
ACAD
1000
AcDbSavedByObjectVersion
1070
     0
  0
VISUALSTYLE
  5
30
102
{ACAD_XDICTIONARY
360
60F
102
}
102
{ACAD_REACTORS
330
29
102
}
330
29
100
AcDbVisualStyle
  2

 70
     5
 71
     0
 72
     2
 73
     0
 90
        0
 40
-0.6
 41
-30.0
 62
     5
 63
     7
 74
     1
 91
        4
 64
     7
 65
   257
 75
     1
175
     1
 42
1.0
 92
        0
 66
   257
 43
1.0
 76
     1
 77
     6
 78
     2
 67
     7
 79
     3
170
     0
171
     0
290
     0
174
     0
 93
        1
 44
0.0
173
     0
291
     0
 45
0.0
1001
ACAD
1000
AcDbSavedByObjectVersion
1070
     0
  0
VISUALSTYLE
  5
3C
102
{ACAD_XDICTIONARY
360
627
102
}
102
{ACAD_REACTORS
330
29
102
}
330
29
100
AcDbVisualStyle
  2

 70
    25
 71
     2
 72
     2
 73
     1
 90
        1
 40
0.5
 41
-30.0
 62
     5
 63
     7
 74
     1
 91
        0
 64
     7
 65
   257
 75
     1
175
     1
 42
1.0
 92
        8
 66
     7
 43
1.0
 76
     1
 77
     6
 78
     2
 67
     7
 79
     3
170
     0
171
     0
290
     0
174
     0
 93
       13
 44
0.0
173
     0
291
     0
 45
0.0
1001
ACAD
1000
AcDbSavedByObjectVersion
1070
     0
  0
DICTIONARYVAR
  5
508
102
{ACAD_REACTORS
330
504
102
}
330
504
100
DictionaryVariables
280
     0
  1
1:1
  0
DICTIONARYVAR
  5
506
102
{ACAD_REACTORS
330
504
102
}
330
504
100
DictionaryVariables
280
     0
  1
STANDARD
  0
DICTIONARYVAR
  5
505
102
{ACAD_REACTORS
330
504
102
}
330
504
100
DictionaryVariables
280
     0
  1
STANDARD
  0
DICTIONARYVAR
  5
50F
102
{ACAD_REACTORS
330
504
102
}
330
504
100
DictionaryVariables
280
     0
  1
1
  0
DICTIONARYVAR
  5
50E
102
{ACAD_REACTORS
330
504
102
}
330
504
100
DictionaryVariables
280
     0
  1
1
  0
DICTIONARYVAR
  5
50D
102
{ACAD_REACTORS
330
504
102
}
330
504
100
DictionaryVariables
280
     0
  1
0
  0
DICTIONARYVAR
  5
50A
102
{ACAD_REACTORS
330
504
102
}
330
504
100
DictionaryVariables
280
     0
  1
0
  0
DICTIONARYVAR
  5
50B
102
{ACAD_REACTORS
330
504
102
}
330
504
100
DictionaryVariables
280
     0
  1
0
  0
DICTIONARYVAR
  5
509
102
{ACAD_REACTORS
330
504
102
}
330
504
100
DictionaryVariables
280
     0
  1
2
  0
DICTIONARYVAR
  5
507
102
{ACAD_REACTORS
330
504
102
}
330
504
100
DictionaryVariables
280
     0
  1
1
  0
DICTIONARYVAR
  5
50C
102
{ACAD_REACTORS
330
504
102
}
330
504
100
DictionaryVariables
280
     0
  1
127
  0
DICTIONARYVAR
  5
600
102
{ACAD_REACTORS
330
504
102
}
330
504
100
DictionaryVariables
280
     0
  1
2
  0
DICTIONARY
  5
5B8
102
{ACAD_REACTORS
330
5AF
102
}
330
5AF
100
AcDbDictionary
281
     1
  0
DICTIONARY
  5
5FE
330
6F
100
AcDbDictionary
280
     1
281
     1
  3
ADSK_XREC_LAYOUTTHUMBNAIL
360
5FF
  0
DICTIONARY
  5
1A
330
19
100
AcDbDictionary
280
     1
281
     1
  3
ACAD_XREC_ROUNDTRIP
360
516
  3
BUMPTILE
360
1C
  3
DIFFUSETILE
360
1B
  3
OPACITYTILE
360
1F
  3
REFLECTIONTILE
360
1E
  3
REFRACTIONTILE
360
20
  3
SPECULARTILE
360
1D
  0
DICTIONARY
  5
12
330
11
100
AcDbDictionary
280
     1
281
     1
  3
ACAD_XREC_ROUNDTRIP
360
515
  3
BUMPTILE
360
14
  3
DIFFUSETILE
360
13
  3
OPACITYTILE
360
17
  3
REFLECTIONTILE
360
16
  3
REFRACTIONTILE
360
18
  3
SPECULARTILE
360
15
  0
DICTIONARY
  5
22
330
21
100
AcDbDictionary
280
     1
281
     1
  3
ACAD_XREC_ROUNDTRIP
360
517
  3
BUMPTILE
360
24
  3
DIFFUSETILE
360
23
  3
OPACITYTILE
360
27
  3
REFLECTIONTILE
360
26
  3
REFRACTIONTILE
360
28
  3
SPECULARTILE
360
25
  0
DICTIONARY
  5
511
330
65
100
AcDbDictionary
280
     1
281
     1
  3
ACAD_ROUNDTRIP_2008_TABLESTYLE_CELLSTYLEMAP
360
601
  3
ACAD_XREC_ROUNDTRIP
360
633
  0
DICTIONARY
  5
60D
330
2F
100
AcDbDictionary
280
     1
281
     1
  3
ACAD_XREC_ROUNDTRIP
360
60E
  0
DICTIONARY
  5
60B
330
2E
100
AcDbDictionary
280
     1
281
     1
  3
ACAD_XREC_ROUNDTRIP
360
60C
  0
DICTIONARY
  5
619
330
35
100
AcDbDictionary
280
     1
281
     1
  3
ACAD_XREC_ROUNDTRIP
360
61A
  0
DICTIONARY
  5
621
330
39
100
AcDbDictionary
280
     1
281
     1
  3
ACAD_XREC_ROUNDTRIP
360
622
  0
DICTIONARY
  5
613
330
32
100
AcDbDictionary
280
     1
281
     1
  3
ACAD_XREC_ROUNDTRIP
360
614
  0
DICTIONARY
  5
617
330
34
100
AcDbDictionary
280
     1
281
     1
  3
ACAD_XREC_ROUNDTRIP
360
618
  0
DICTIONARY
  5
631
330
41
100
AcDbDictionary
280
     1
281
     1
  3
ACAD_XREC_ROUNDTRIP
360
632
  0
DICTIONARY
  5
61F
330
38
100
AcDbDictionary
280
     1
281
     1
  3
ACAD_XREC_ROUNDTRIP
360
620
  0
DICTIONARY
  5
603
330
2A
100
AcDbDictionary
280
     1
281
     1
  3
ACAD_XREC_ROUNDTRIP
360
604
  0
DICTIONARY
  5
605
330
2B
100
AcDbDictionary
280
     1
281
     1
  3
ACAD_XREC_ROUNDTRIP
360
606
  0
DICTIONARY
  5
607
330
2C
100
AcDbDictionary
280
     1
281
     1
  3
ACAD_XREC_ROUNDTRIP
360
608
  0
DICTIONARY
  5
609
330
2D
100
AcDbDictionary
280
     1
281
     1
  3
ACAD_XREC_ROUNDTRIP
360
60A
  0
DICTIONARY
  5
611
330
31
100
AcDbDictionary
280
     1
281
     1
  3
ACAD_XREC_ROUNDTRIP
360
612
  0
DICTIONARY
  5
62D
330
3F
100
AcDbDictionary
280
     1
281
     1
  3
ACAD_XREC_ROUNDTRIP
360
62E
  0
DICTIONARY
  5
61D
330
37
100
AcDbDictionary
280
     1
281
     1
  3
ACAD_XREC_ROUNDTRIP
360
61E
  0
DICTIONARY
  5
62F
330
40
100
AcDbDictionary
280
     1
281
     1
  3
ACAD_XREC_ROUNDTRIP
360
630
  0
DICTIONARY
  5
615
330
33
100
AcDbDictionary
280
     1
281
     1
  3
ACAD_XREC_ROUNDTRIP
360
616
  0
DICTIONARY
  5
62B
330
3E
100
AcDbDictionary
280
     1
281
     1
  3
ACAD_XREC_ROUNDTRIP
360
62C
  0
DICTIONARY
  5
629
330
3D
100
AcDbDictionary
280
     1
281
     1
  3
ACAD_XREC_ROUNDTRIP
360
62A
  0
DICTIONARY
  5
623
330
3A
100
AcDbDictionary
280
     1
281
     1
  3
ACAD_XREC_ROUNDTRIP
360
624
  0
DICTIONARY
  5
625
330
3B
100
AcDbDictionary
280
     1
281
     1
  3
ACAD_XREC_ROUNDTRIP
360
626
  0
DICTIONARY
  5
61B
330
36
100
AcDbDictionary
280
     1
281
     1
  3
ACAD_XREC_ROUNDTRIP
360
61C
  0
DICTIONARY
  5
60F
330
30
100
AcDbDictionary
280
     1
281
     1
  3
ACAD_XREC_ROUNDTRIP
360
610
  0
DICTIONARY
  5
627
330
3C
100
AcDbDictionary
280
     1
281
     1
  3
ACAD_XREC_ROUNDTRIP
360
628
  0
XRECORD
  5
5FF
102
{ACAD_REACTORS
330
5FE
102
}
330
5FE
100
AcDbXrecord
280
     1
310
2800000000010000A9000000010008000000000000A90000000000000000000000010000000000003028210000000000FFFFFF000000000000000000000000000000000000000000000000000000000000000000330000006600000099000000CC000000FF00000000330000333300006633000099330000CC330000FF3300
310
0000660000336600006666000099660000CC660000FF66000000990000339900006699000099990000CC990000FF99000000CC000033CC000066CC000099CC0000CCCC0000FFCC000000FF000033FF000066FF000099FF0000CCFF0000FFFF000000003300330033006600330099003300CC003300FF003300003333003333
310
33006633330099333300CC333300FF33330000663300336633006666330099663300CC663300FF66330000993300339933006699330099993300CC993300FF99330000CC330033CC330066CC330099CC3300CCCC3300FFCC330000FF330033FF330066FF330099FF3300CCFF3300FFFF330000006600330066006600660099
310
006600CC006600FF00660000336600333366006633660099336600CC336600FF33660000666600336666006666660099666600CC666600FF66660000996600339966006699660099996600CC996600FF99660000CC660033CC660066CC660099CC6600CCCC6600FFCC660000FF660033FF660066FF660099FF6600CCFF6600
310
FFFF660000009900330099006600990099009900CC009900FF00990000339900333399006633990099339900CC339900FF33990000669900336699006666990099669900CC669900FF66990000999900339999006699990099999900CC999900FF99990000CC990033CC990066CC990099CC9900CCCC9900FFCC990000FF99
310
0033FF990066FF990099FF9900CCFF9900FFFF99000000CC003300CC006600CC009900CC00CC00CC00FF00CC000033CC003333CC006633CC009933CC00CC33CC00FF33CC000066CC003366CC006666CC009966CC00CC66CC00FF66CC000099CC003399CC006699CC009999CC00CC99CC00FF99CC0000CCCC0033CCCC0066CC
310
CC0099CCCC00CCCCCC00FFCCCC0000FFCC0033FFCC0066FFCC0099FFCC00CCFFCC00FFFFCC000000FF003300FF006600FF009900FF00CC00FF00FF00FF000033FF003333FF006633FF009933FF00CC33FF00FF33FF000066FF003366FF006666FF009966FF00CC66FF00FF66FF000099FF003399FF006699FF009999FF00CC
310
99FF00FF99FF0000CCFF0033CCFF0066CCFF0099CCFF00CCCCFF00FFCCFF0000FFFF0033FFFF0066FFFF0099FFFF00CCFFFF00FFFFFF00000000000D0D0D001A1A1A00282828003535350043434300505050005D5D5D006B6B6B00787878008686860093939300A1A1A100AEAEAE00BBBBBB00C9C9C900D6D6D600E4E4E400
310
F1F1F100FFFFFF000000000000000000000000000000000000000000000000000000000000000000000000000000000000000000000000000000000000000000000000000000000000000000000000000000000000000000000000000000000000000000000000000000000000000000000000000000000000000000000000
310
00000000000000000000000000000000000000000000000000000000000000000000000000000000000000000000000000000000000000000000000000000000000000000000000000000000000000000000000000000000000000000000000000000000000000000000000000000000000000000000000000000000000000
310
00000000000000000000000000000000000000000000000000000000000000000000000000000000000000000000000000000000000000000000000000000000000000000000000000000000000000000000000000000000000000000000000000000000000000000000000000000000000000000000000000000000000000
310
00000000000000000000000000000000000000000000000000000000000000000000000000000000000000000000000000000000000000000000000000000000000000000000000000000000000000000000000000000000000000000000000000000000000000000000000000000000000000000000000000000000000000
310
00000000000000000000000000000000000000000000000000000000000000000000000000000000000000000000000000000000000000000000000000000000000000000000000000000000000000000000000000000000000000000000000000000000000000000000000000000000000000000000000000000000000000
310
00000000000000000000000000000000000000000000000000000000000000000000000000000000000000000000000000000000000000000000000000000000000000000000000000000000000000000000000000000000000000000000000000000000000000000000000000000000000000000000000000000000000000
310
00000000000000000000000000000000000000000000000000000000000000000000000000000000000000000000000000000000000000000000000000000000000000000000000000000000000000000000000000000000000000000000000000000000000000000000000000000000000000000000000000000000000000
310
00000000000000000000000000000000000000000000000000000000000000000000000000000000000000000000000000000000000000000000000000000000000000000000000000000000000000000000000000000000000000000000000000000000000000000000000000000000000000000000000000000000000000
310
00000000000000000000000000000000000000000000000000000000000000000000000000000000000000000000000000000000000000000000000000000000000000000000000000000000000000000000000000000000000000000000000000000000000000000000000000000000000000000000000000000000000000
310
00000000000000000000000000000000000000000000000000000000000000000000000000000000000000000000000000000000000000000000000000000000000000000000000000000000000000000000000000000000000000000000000000000000000000000000000000000000000000000000000000000000000000
310
00000000000000000000000000000000000000000000000000000000000000000000000000000000000000000000000000000000000000000000000000000000000000000000000000000000000000000000000000000000000000000000000000000000000000000000000000000000000000000000000000000000000000
310
00000000000000000000000000000000000000000000000000000000000000000000000000000000000000000000000000000000000000000000000000000000000000000000000000000000000000000000000000000000000000000000000000000000000000000000000000000000000000000000000000000000000000
310
00000000000000000000000000000000000000000000000000000000000000000000000000000000000000000000000000000000000000000000000000000000000000000000000000000000000000000000000000000000000000000000000000000000000000000000000000000000000000000000000000000000000000
310
00000000000000000000000000000000000000000000000000000000000000000000000000000000000000000000000000000000000000000000000000000000000000000000000000000000000000000000000000000000000000000000000000000000000000000000000000000000000000000000000000000000000000
310
00000000000000000000000000000000000000000000000000000000000000000000000000000000000000000000000000000000000000000000000000000000000000000000000000000000000000000000000000000000000000000000000000000000000000000000000000000000000000000000000000000000000000
310
00000000000000000000000000000000000000000000000000000000000000000000000000000000000000000000000000000000000000000000000000000000000000000000000000000000000000000000000000000000000000000000000000000000000000000000000000000000000000000000000000000000000000
310
00000000000000000000000000000000000000000000000000000000000000000000000000000000000000000000000000000000000000000000000000000000000000000000000000000000000000000000000000000000000000000000000000000000000000000000000000000000000000000000000000000000000000
310
00000000000000000000000000000000000000000000000000000000000000000000000000000000000000000000000000000000000000000000000000000000000000000000000000000000000000000000000000000000000000000000000000000000000000000000000000000000000000000000000000000000000000
310
00000000000000000000000000000000000000000000000000000000000000000000000000000000000000000000000000000000000000000000000000000000000000000000000000000000000000000000000000000000000000000000000000000000000000000000000000000000000000000000000000000000000000
310
00000000000000000000000000000000000000000000000000000000000000000000000000000000000000000000000000000000000000000000000000000000000000000000000000000000000000000000000000000000000000000000000000000000000000000000000000000000000000000000000000000000000000
310
00000000000000000000000000000000000000000000000000000000000000000000000000000000000000000000000000000000000000000000000000000000000000000000000000000000000000000000000000000000000000000000000000000000000000000000000000000000000000000000000000000000000000
310
00000000000000000000000000000000000000000000000000000000000000000000000000000000000000000000000000000000000000000000000000000000000000000000000000000000000000000000000000000000000000000000000000000000000000000000000000000000000000000000000000000000000000
310
00000000000000000000000000000000000000000000000000000000000000000000000000000000000000000000000000000000000000000000000000000000000000000000000000000000000000000000000000000000000000000000000000000000000000000000000000000000000000000000000000000000000000
310
00000000000000000000000000000000000000000000000000000000000000000000000000000000000000000000000000000000000000000000000000000000000000000000000000000000000000000000000000000000000000000000000000000000000000000000000000000000000000000000000000000000000000
310
00000000000000000000000000000000000000000000000000000000000000000000000000000000000000000000000000000000000000000000000000000000000000000000000000000000000000000000000000000000000000000000000000000000000000000000000000000000000000000000000000000000000000
310
00000000000000000000000000000000000000000000000000000000000000000000000000000000000000000000000000000000000000000000000000000000000000000000000000000000000000000000000000000000000000000000000000000000000000000000000000000000000000000000000000000000000000
310
00000000000000000000000000000000000000000000000000000000000000000000000000000000000000000000000000000000000000000000000000000000000000000000000000000000000000000000000000000000000000000000000000000000000000000000000000000000000000000000000000000000000000
310
00000000000000000000000000000000000000000000000000000000000000000000000000000000000000000000000000000000000000000000000000000000000000000000000000000000000000000000000000000000000000000000000000000000000000000000000000000000000000000000000000000000000000
310
00000000000000000000000000000000000000000000000000000000000000000000000000000000000000000000000000000000000000000000000000000000000000000000000000000000000000000000000000000000000000000000000000000000000000000000000000000000000000000000000000000000000000
310
00000000000000000000000000000000000000000000000000000000000000000000000000000000000000000000000000000000000000000000000000000000000000000000000000000000000000000000000000000000000000000000000000000000000000000000000000000000000000000000000000000000000000
310
00000000000000000000000000000000000000000000000000000000000000000000000000000000000000000000000000000000000000000000000000000000000000000000000000000000000000000000000000000000000000000000000000000000000000000000000000000000000000000000000000000000000000
310
00000000000000000000000000000000000000000000000000000000000000000000000000000000000000000000000000000000000000000000000000000000000000000000000000000000000000000000000000000000000000000000000000000000000000000000000000000000000000000000000000000000000000
310
00000000000000000000000000000000000000000000000000000000000000000000000000000000000000000000000000000000000000000000000000000000000000000000000000000000000000000000000000000000000000000000000000000000000000000000000000000000000000000000000000000000000000
310
00000000000000000000000000000000000000000000000000000000000000000000000000000000000000000000000000000000000000000000000000000000000000000000000000000000000000000000000000000000000000000000000000000000000000000000000000000000000000000000000000000000000000
310
00000000000000000000000000000000000000000000000000000000000000000000000000000000000000000000000000000000000000000000000000000000000000000000000000000000000000000000000000000000000000000000000000000000000000000000000000000000000000000000000000000000000000
310
00000000000000000000000000000000000000000000000000000000000000000000000000000000000000000000000000000000000000000000000000000000000000000000000000000000000000000000000000000000000000000000000000000000000000000000000000000000000000000000000000000000000000
310
00000000000000000000000000000000000000000000000000000000000000000000000000000000000000000000000000000000000000000000000000000000000000000000000000000000000000000000000000000000000000000000000000000000000000000000000000000000000000000000000000000000000000
310
00000000000000000000000000000000000000000000000000000000000000000000000000000000000000000000000000000000000000000000000000000000000000000000000000000000000000000000000000000000000000000000000000000000000000000000000000000000000000000000000000000000000000
310
00000000000000000000000000000000000000000000000000000000000000000000000000000000000000000000000000000000000000000000000000000000000000000000000000000000000000000000000000000000000000000000000000000000000000000000000000000000000000000000000000000000000000
310
00000000000000000000000000000000000000000000000000000000000000000000000000000000000000000000000000000000000000000000000000000000000000000000000000000000000000000000000000000000000000000000000000000000000000000000000000000000000000000000000000000000000000
310
00000000000000000000000000000000000000000000000000000000000000000000000000000000000000000000000000000000000000000000000000000000000000000000000000000000000000000000000000000000000000000000000000000000000000000000000000000000000000000000000000000000000000
310
00000000000000000000000000000000000000000000000000000000000000000000000000000000000000000000000000000000000000000000000000000000000000000000000000000000000000000000000000000000000000000000000000000000000000000000000000000000000000000000000000000000000000
310
00000000000000000000000000000000000000000000000000000000000000000000000000000000000000000000000000000000000000000000000000000000000000000000000000000000000000000000000000000000000000000000000000000000000000000000000000000000000000000000000000000000000000
310
00000000000000000000000000000000000000000000000000000000000000000000000000000000000000000000000000000000000000000000000000000000000000000000000000000000000000000000000000000000000000000000000000000000000000000000000000000000000000000000000000000000000000
310
00000000000000000000000000000000000000000000000000000000000000000000000000000000000000000000000000000000000000000000000000000000000000000000000000000000000000000000000000000000000000000000000000000000000000000000000000000000000000000000000000000000000000
310
00000000000000000000000000000000000000000000000000000000000000000000000000000000000000000000000000000000000000000000000000000000000000000000000000000000000000000000000000000000000000000000000000000000000000000000000000000000000000000000000000000000000000
310
00000000000000000000000000000000000000000000000000000000000000000000000000000000000000000000000000000000000000000000000000000000000000000000000000000000000000000000000000000000000000000000000000000000000000000000000000000000000000000000000000000000000000
310
00000000000000000000000000000000000000000000000000000000000000000000000000000000000000000000000000000000000000000000000000000000000000000000000000000000000000000000000000000000000000000000000000000000000000000000000000000000000000000000000000000000000000
310
00000000000000000000000000000000000000000000000000000000000000000000000000000000000000000000000000000000000000000000000000000000000000000000000000000000000000000000000000000000000000000000000000000000000000000000000000000000000000000000000000000000000000
310
00000000000000000000000000000000000000000000000000000000000000000000000000000000000000000000000000000000000000000000000000000000000000000000000000000000000000000000000000000000000000000000000000000000000000000000000000000000000000000000000000000000000000
310
00000000000000000000000000000000000000000000000000000000000000000000000000000000000000000000000000000000000000000000000000000000000000000000000000000000000000000000000000000000000000000000000000000000000000000000000000000000000000000000000000000000000000
310
00000000000000000000000000000000000000000000000000000000000000000000000000000000000000000000000000000000000000000000000000000000000000000000000000000000000000000000000000000000000000000000000000000000000000000000000000000000000000000000000000000000000000
310
00000000000000000000000000000000000000000000000000000000000000000000000000000000000000000000000000000000000000000000000000000000000000000000000000000000000000000000000000000000000000000000000000000000000000000000000000000000000000000000000000000000000000
310
00000000000000000000000000000000000000000000000000000000000000000000000000000000000000000000000000000000000000000000000000000000000000000000000000000000000000000000000000000000000000000000000000000000000000000000000000000000000000000000000000000000000000
310
00000000000000000000000000000000000000000000000000000000000000000000000000000000000000000000000000000000000000000000000000000000000000000000000000000000000000000000000000000000000000000000000000000000000000000000000000000000000000000000000000000000000000
310
00000000000000000000000000000000000000000000000000000000000000000000000000000000000000000000000000000000000000000000000000000000000000000000000000000000000000000000000000000000000000000000000000000000000000000000000000000000000000000000000000000000000000
310
00000000000000000000000000000000000000000000000000000000000000000000000000000000000000000000000000000000000000000000000000000000000000000000000000000000000000000000000000000000000000000000000000000000000000000000000000000000000000000000000000000000000000
310
00000000000000000000000000000000000000000000000000000000000000000000000000000000000000000000000000000000000000000000000000000000000000000000000000000000000000000000000000000000000000000000000000000000000000000000000000000000000000000000000000000000000000
310
00000000000000000000000000000000000000000000000000000000000000000000000000000000000000000000000000000000000000000000000000000000000000000000000000000000000000000000000000000000000000000000000000000000000000000000000000000000000000000000000000000000000000
310
00000000000000000000000000000000000000000000000000000000000000000000000000000000000000000000000000000000000000000000000000000000000000000000000000000000000000000000000000000000000000000000000000000000000000000000000000000000000000000000000000000000000000
310
00000000000000000000000000000000000000000000000000000000000000000000000000000000000000000000000000000000000000000000000000000000000000000000000000000000000000000000000000000000000000000000000000000000000000000000000000000000000000000000000000000000000000
310
00000000000000000000000000000000000000000000000000000000000000000000000000000000000000000000000000000000000000000000000000000000000000000000000000000000000000000000000000000000000000000000000000000000000000000000000000000000000000000000000000000000000000
310
00000000000000000000000000000000000000000000000000000000000000000000000000000000000000000000000000000000000000000000000000000000000000000000000000000000000000000000000000000000000000000000000000000000000000000000000000000000000000000000000000000000000000
310
00000000000000000000000000000000000000000000000000000000000000000000000000000000000000000000000000000000000000000000000000000000000000000000000000000000000000000000000000000000000000000000000000000000000000000000000000000000000000000000000000000000000000
310
00000000000000000000000000000000000000000000000000000000000000000000000000000000000000000000000000000000000000000000000000000000000000000000000000000000000000000000000000000000000000000000000000000000000000000000000000000000000000000000000000000000000000
310
000000000000000000000000000000000000000000000000000000000000000000000000000000000000000000000000000000000000000000000000F5F5F5F5F5F5F5F5F5F5F5F5F5F50000000000000000000000000000F5F5F5F5F5F5F5F5F5F5F5F5F5F5F5F5F5F5F5F5F5F5F5F5F50000000000000000000000000000
310
000000F5F5F5F5F5F5F5F5F5F5F5F5F5F5F5F5F5F5F5F5F5F5F5F5F5F5F5F5F5F5F5F5F5F5F50000000000000000000000000000000000000000000000000000000000000000000000000000000000000000000000000000000000000000000000000000000000000000000000000000000000000000000000000000000000
310
0000000000000000000000000000000000000000000000000000000000000000000000000000000000000000000000000000000000000000000000000000F5F5F5F5F5F5F5F5F5F5F5F5F5F50000000000000000000000F5F5F5F5F5F5F5F5F5F5F5F5F5F5F5F5F5F5F5F5F5F5F5F5F5F5F5F5000000000000000000000000
310
000000F5F5F5F5F5F5F5F5F5F5F5F5F5F5F5F5F5F5F5F5F5F5F5F5F5F5F5F5F5F5F5F5F5F5F5F5F5000000000000000000000000000000000000000000000000000000000000000000000000000000000000000000000000000000000000000000000000000000000000000000000000000000000000000000000000000000
310
0000000000000000000000000000000000000000000000000000000000000000000000000000000000000000000000000000000000000000000000000000F5F5F5F5F5F5F5F5F5F5F5F5F5F5F5F50000000000000000000000F500000000000000000000000000000000000000000000000000000000000000000000000000
310
0000000000F500000000000000000000000000000000000000000000000000000000000000000000000000000000000000000000000000000000000000000000000000000000000000000000000000000000000000000000000000000000000000000000000000000000000000000000000000000000000000000000000000
310
00000000000000000000000000000000000000000000000000000000000000000000000000000000000000000000000000000000000000000000000000000000F500000000000000000000000000000000000000000000000000F5000000000000000000000000000000000000000000000000000000000000000000000000
310
00000000000000F50000000000000000000000000000000000000000000000000000000000000000000000000000000000000000000000000000000000000000000000000000000000000000000000000000000000000000000000000000000000000000000000000000000000000000000000000000000000000000000000
310
000000000000000000000000000000000000000000000000000000000000000000000000000000000000000000000000000000000000000000000000000000000000F500000000000000000000000000000000000000000000000000F500000000000000000000000000000000000000000000000000000000000000000000
310
0000000000000000F500000000000000000000000000000000000000000000000000000000000000000000000000000000000000000000000000000000000000000000000000000000000000000000000000000000000000000000000000000000000000000000000000000000000000000000000000000000000000000000
310
00000000000000000000000000000000000000000000000000000000000000000000000000000000000000000000000000000000000000000000000000000000000000F500000000000000000000000000000000000000000000000000F5000000000000000000000000000000000000000000000000000000000000000000
310
00000000000000000000F50000000000000000000000000000000000F5F5F5F5F5F5F5F5F5F5F5F5F5F5F5000000000000000000000000000000000000000000000000000000000000000000000000000000000000000000000000000000000000000000000000000000000000000000000000000000000000000000000000
310
000000000000000000000000000000000000000000000000000000000000000000000000000000000000000000000000000000000000000000000000000000000000000000F500000000000000000000000000000000000000000000000000F500000000000000000000000000000000000000000000000000000000000000
310
000000000000000000000000F50000000000000000000000000000000000F5F5F5F5F5F5F5F5F5F5F5F5F5F5F500000000000000000000000000000000000000000000000000000000000000000000000000000000000000000000000000000000000000000000000000000000000000000000000000000000000000000000
310
0000000000000000000000000000000000000000000000000000000000000000000000000000000000000000000000000000000000000000000000000000000000000000000000F5000000000000000000000000000000000000000000000000F5000000000000000000000000000000000000000000000000000000000000
310
0000000000000000000000000000F50000000000000000000000000000F5F5F5F5F5F5F5F5F5F5F5F5F5F5F5F5F5F50000000000000000000000000000000000000000000000000000000000000000000000000000000000000000000000000000000000000000000000000000000000000000000000000000000000000000
310
00000000000000000000000000000000000000000000000000000000000000000000000000000000000000000000000000000000000000000000000000000000000000000000000000F5000000000000000000000000000000000000000000000000F500000000000000000000000000000000000000000000000000000000
310
00000000000000000000000000000000F50000000000000000000000000000F50000000000000000000000000000000000000000000000000000000000000000000000000000000000000000000000000000000000000000000000000000000000000000000000000000000000000000000000000000000000000000000000
310
000000000000000000000000000000000000000000000000000000000000000000000000000000000000000000000000000000000000000000000000000000000000000000000000000000F50000000000000000000000000000000000000000000000F5000000000000000000000000000000000000000000000000000000
310
000000000000000000000000000000000000F50000000000000000000000000000F5000000000000000000000000000000000000000000000000000000000000000000000000000000000000000000000000000000000000000000000000000000000000000000000000000000000000000000000000000000000000000000
310
0000000000000000000000000000000000000000000000000000000000000000000000000000000000000000000000000000000000000000000000000000000000000000000000000000000000F50000000000000000000000000000000000000000000000F500000000000000000000000000000000000000000000000000
310
00000000000000000000000000000000000000F50000000000000000000000000000F50000000000000000000000000000000000000000000000000000000000000000000000000000000000000000000000000000000000000000000000000000000000000000000000000000000000000000000000000000000000000000
310
000000000000000000000000000000000000000000000000000000000000000000000000000000000000000000000000000000000000000000000000000000000000000000000000000000000000F50000000000000000000000000000000000000000000000F5000000000000000000000000000000000000000000000000
310
000000000000000000000000000000000000000000F50000000000000000000000000000F5000000000000000000000000000000000000000000000000000000000000000000000000000000000000000000000000000000000000000000000000000000000000000000000000000000000000000000000000000000000000
310
0000000000000000000000000000000000000000000000000000000000000000000000000000000000000000000000000000000000000000000000000000000000000000000000000000000000000000F50000000000000000000000000000000000000000000000F500000000000000000000000000000000000000000000
310
0000000000000000000000000000000000000000000000F50000000000000000000000000000F500000000000000000000000000000000000000000000000000000000000000000000000000000000000000000000000000000000000000000000000000000000000000000000000000000000000000000000000000000000
310
00000000000000000000000000000000000000000000000000000000000000000000000000000000000000000000000000000000000000000000000000000000000000000000000000000000000000000000F500000000000000000000000000000000000000000000F5000000000000000000000000000000000000000000
310
00F50000000000000000000000000000000000000000000000F50000000000000000000000000000F50000000000000000000000000000000000000000000000000000000000000000000000000000000000000000000000000000000000000000000000000000000000000000000000000000000000000000000000000000
310
000000000000000000000000000000000000000000000000000000000000000000000000000000000000000000000000000000000000000000000000000000000000000000000000000000000000000000000000F500000000000000000000000000000000000000000000F500000000000000000000000000000000000000
310
000000F5F5F5F5F5F5F50000000000000000000000000000000000F500000000000000000000000000F500000000000000000000000000000000000000000000000000000000000000000000000000000000000000000000000000000000000000000000000000000000000000000000000000000000000000000000000000
310
0000000000000000000000000000000000000000000000000000000000000000000000000000000000000000000000000000000000000000000000000000000000000000000000000000000000000000000000000000F5000000000000000000000000000000000000000000F5000000000000000000000000000000000000
310
00000000F500F50000000000F5F5F5F5F5F5F5F50000000000000000F50000000000000000000000000000F50000000000000000000000000000000000000000000000000000000000000000000000000000000000000000000000000000000000000000000000000000000000000000000000000000000000000000000000
310
0000000000000000000000000000000000000000000000000000000000000000000000000000000000000000000000000000000000000000000000000000000000000000000000F5F5F5F5F5F5F5F5F5F5F5F5F5F5F5F5F5F5F5F5F5F5F5F5F5F5F5F5F5F5F5F5F5F5F5F5F5F5F5F5F5F5F5F5F5F5F5F5F5F5F5F5F5F5F5F5
310
F5F5F5F5F5F5F5F5F5F5F5F5F5000000000000000000F5F5F5F5F5F5F5F5F5F5F5F5F5F5F5F5F5F5F5F5F5F5F5F5F5F5F5F5F5F5F5F5F5F5F5F5F5F5F5F5F5F5000000000000000000000000000000000000000000000000000000000000000000000000000000000000000000000000000000000000000000000000000000
310
00000000000000000000000000000000000000000000000000000000000000000000000000000000000000000000000000000000000000000000000000000000000000000000000000F5000000000000000000000000000000F5000000000000000000000000000000000000000000F5000000000000000000000000000000
310
000000000000000000000000000000F5F5F5F5F5F5F5F5F500000000F500F500F50000F50000000000000000000000F50000000000000000000000000000000000F500000000000000000000000000000000000000000000000000000000000000000000000000000000000000000000000000000000000000000000000000
310
000000000000000000000000000000000000000000000000000000000000000000000000000000000000000000000000000000000000000000000000000000000000000000000000000000F5000000000000000000000000000000F5000000000000000000000000000000000000000000F500000000000000000000000000
310
0000000000000000000000000000000000000000000000000000F5F5F5F5F500F500F50000F500000000000000000000F5000000000000000000000000000000000000F50000000000000000000000000000000000000000000000000000000000000000000000000000000000000000000000000000000000000000000000
310
0000000000000000000000000000000000000000000000000000000000000000000000000000000000000000000000000000000000000000000000000000000000000000000000000000000000F50000000000000000000000000000F5F500000000000000000000000000000000000000F5F5000000000000000000000000
310
00000000000000000000000000000000000000000000000000000000000000F5F5F5F5F5F5F5F5F5F5F5F5F5F5F5F5000000F5000000000000000000000000000000000000F5000000000000000000000000000000000000000000000000000000000000000000000000000000000000000000000000000000000000000000
310
00000000000000000000000000000000000000000000000000000000000000000000000000000000000000000000000000000000000000000000000000000000000000000000000000000000000000F50000000000000000000000000000F5F500F5F5F5F5F5F5F5F5F5F5F5F5F5F5F5F5F5F5F5F5F5F5F5F5F5F5F5F5F5F5
310
F5F5F5F5F5F5F5F5F5F5F5F5F5F5F5F5F5F5F5F5F5F5F5F5F5F5F5F5F5F5F5F5F5F5F5F5F5F5F5F5F5F5F5F5F5F5F5F5F5F5F5F5F5F50000000000000000000000000000000000F500000000000000000000000000000000000000000000000000000000000000000000000000000000000000000000000000000000000000
310
000000000000000000000000000000000000000000000000000000000000000000000000000000000000000000000000000000000000000000000000000000000000000000000000000000000000000000F50000000000000000000000000000F5F5F5F5F5F500F50000F5000000F50000F5000000F50000F5F50000F50000
310
00F50000F5000000F50000F5F50000F5000000F50000F5000000F50000F5000000F50000F5F50000F5000000F50000F5000000F500F5F5F50000000000000000000000000000000000F50000000000000000000000000000000000000000000000000000000000000000000000000000000000000000000000000000000000
310
0000000000000000000000000000000000000000000000000000000000000000000000000000000000000000000000000000000000000000000000000000000000000000000000000000000000000000000000F500000000000000000000000000F5F5F5F5F50000F500F5F500F500F500F5F500F500F500F5F50000F5F500
310
F500F500F5F500F500F500F5F50000F5F500F500F500F5F500F500F500F5F500F500F500F5F50000F5F5F5F500F500F5F500F500F500F5F5F5F50000000000000000000000000000000000F5000000000000000000000000000000000000000000000000000000000000000000000000000000000000000000000000000000
310
00000000000000000000000000000000000000000000000000000000000000000000000000000000000000000000000000000000000000000000000000000000000000000000000000000000000000000000000000F500000000000000000000000000F5F5F5F5F5F5F50000F5F50000F50000F5F50000F5000000F50000F5
310
F50000F50000F5F50000F50000F5F50000F5000000F50000F5F50000F50000F5F50000F50000F5F50000F500F5F5F50000F5F50000F50000F5F500F50000000000000000000000000000000000F500000000000000000000000000000000000000000000000000000000000000000000000000000000000000000000000000
310
000000000000000000000000000000000000000000000000000000000000000000000000000000000000000000000000000000000000000000000000000000000000000000000000000000000000000000000000000000F500000000000000000000000000F5F5F5F5F5F500F500F5F500F500F500F5F500F500F500F500F5
310
00F5F500F500F500F5F500F500F500F5F500F500F500F500F500F5F500F500F500F5F500F500F500F5F500F500F500F500F500F5F500F500F500F5F500F50000000000000000000000000000000000F50000000000000000000000000000000000000000000000000000000000000000000000000000000000000000000000
310
0000000000000000000000000000000000000000000000000000000000000000000000000000000000000000000000000000000000000000000000000000000000000000000000000000000000000000000000000000000000F50000000000000000000000000000F5F500F5F5F5F5F5F5F5F5F5F5F5F5F5F5F5F5F5F5F5F5
310
F5F5F5F5F5F5F5F5F5F5F5F5F5F5F5F5F5F5F5F5F5F5F5F5F5F5F5F5F5F5F5F5F5F5F5F5F5F5F5F5F5F5F5F5F5F5F5F5F5F5F5F5F5F5F5F5F5F5F5F5F5F5F5F50000000000000000000000000000000000F5000000000000000000000000000000000000000000000000000000000000000000000000000000000000000000
310
00000000000000000000000000000000000000000000000000000000000000000000000000000000000000000000000000000000000000000000000000000000000000000000000000000000000000000000000000000000000000F5000000000000000000000000F5F5F5F5F5F5F5F5F5F500000000000000000000000000
310
000000000000000000000000000000000000000000000000000000000000000000000000000000000000000000F50000F500000000F500000000000000F5F5F5F5F50000000000000000000000000000000000F500000000000000000000000000000000000000000000000000000000000000000000000000000000000000
310
000000000000000000000000000000000000000000000000000000000000000000000000000000000000000000000000000000000000000000000000000000000000000000000000000000000000000000000000000000000000000000F50000000000000000000000F5F5F5F5F5F5F5F5F5F5F50000000000000000000000
310
00000000000000000000000000000000000000000000000000000000000000000000000000000000000000000000F5F5F5F5F5F5F5F5F5F5F5F5F5F5F5F5F5F5F5F5F5F5F5F5F5F5F5F50000000000000000000000F50000000000000000000000000000000000000000000000000000000000000000000000000000000000
310
0000000000000000000000000000000000000000000000000000000000000000000000000000000000000000000000000000000000000000000000000000000000000000000000000000000000000000000000000000000000000000000000F50000000000000000000000F500000000000000F5F5F5000000000000000000
310
000000000000000000000000000000000000000000000000000000000000000000000000000000000000F5F5F5F5F5F50000F500F500000000F500000000000000F5F5F500000000000000F50000000000000000000000F5000000000000000000000000000000000000000000000000000000000000000000000000000000
310
00000000000000000000000000000000000000000000000000000000000000000000000000000000000000000000000000000000000000000000000000000000000000000000000000000000000000000000000000000000000000000000000000F50000000000000000000000F500F5F500000000F5F5F500000000000000
310
0000000000000000000000000000000000000000000000000000000000000000000000000000F5F5F5F5F5F5000000000000F5F5F500F500000000F500000000000000F5F5F500000000F5F500F50000000000000000000000F500000000000000000000000000000000000000000000000000000000000000000000000000
310
000000000000000000000000000000000000000000000000000000000000000000000000000000000000000000000000000000000000000000000000000000000000000000000000000000000000000000000000000000000000000000000000000000F5F5F5F5F5F5F5F5F5F5F5F5F5F5F5F5F5F5F5F5F5F5F50000000000
310
00000000000000000000000000000000000000000000000000000000000000000000F5F5F5F5F5F5000000000000F5F5F5F5F5F50000F5F5F5F5F5F5F5F500000000000000F5F5F5F5F5F5F5F5F5F5F5F5F5F5F5F5F5F5F5F5F5F5F50000000000000000000000000000000000000000000000000000000000000000000000
310
0000000000000000000000000000000000000000000000000000000000000000000000000000000000000000000000000000000000000000000000000000000000000000000000000000000000000000000000000000000000000000000000000000000000F5F500F50000F5000000F50000F5F5F500F50000F5F500F50000
310
00000000000000000000000000000000000000000000000000000000000000000000000000F5F5000000F5F5F5F5F5F500000000000000000000000000000000000000000000000000F5F50000F5F5F5F5000000F5000000F50000F5F5F5000000000000000000000000000000000000000000000000000000000000000000
310
00000000000000000000000000000000000000000000000000000000000000000000000000000000000000000000000000000000000000000000000000000000000000000000000000000000000000000000000000000000000000000000000000000000000000F5F50000F50000F5000000F50000F5F50000F50000F50000
310
F50000000000000000000000000000000000000000000000000000000000000000000000000000F5F5F5F5F500000000000000000000000000000000000000000000000000000000000000F500F50000F5F500F5000000F5000000F5000000F500000000000000000000000000000000000000000000000000000000000000
310
000000000000000000000000000000000000000000000000000000000000000000000000000000000000000000000000000000000000000000000000000000000000000000000000000000000000000000000000000000000000000000000000000000000000000000F5F5F50000F50000F5000000F500F5F5000000F500F5
310
0000F50000000000000000000000000000000000000000000000000000000000000000000000000000000000000000000000000000000000000000000000000000000000000000000000000000F50000F500F5F50000F5000000F5000000F50000F50000000000000000000000000000000000000000000000000000000000
310
0000000000000000000000000000000000000000000000000000000000000000000000000000000000000000000000000000000000000000000000000000000000000000000000000000000000000000000000000000000000000000000000000000000000000000000000F5F500F50000F50000F5000000F5F5F5F5F50000
310
F5F5000000F500000000000000000000000000000000000000000000000000000000000000000000000000000000000000000000000000000000000000000000000000000000000000000000000000F5000000F5F5F5F50000F5000000F5000000F500F5000000000000000000000000000000000000000000000000000000
310
00000000000000000000000000000000000000000000000000000000000000000000000000000000000000000000000000000000000000000000000000000000000000000000000000000000000000000000000000000000000000000000000000000000000000000000000000F5F50000F50000F50000F5000000F5F50000
310
F50000F500000000F5000000000000000000000000000000000000000000000000000000000000000000000000000000000000000000000000000000000000000000000000000000000000000000000000F5F5000000F5F500F50000F5000000F5F50000F5F500000000000000000000000000000000000000000000000000
310
000000000000000000000000000000000000000000000000000000000000000000000000000000000000000000000000000000000000000000000000000000000000000000000000000000000000000000000000000000000000000000000000000000000000000000000000000000F5F5000000F50000F50000F50000F5F5
310
F50000F500F500000000F5000000000000000000000000000000000000000000000000000000000000000000000000000000000000000000000000000000000000000000000000000000000000000000000000F500F50000F5F50000F50000F500000000F50000F50000000000000000000000000000000000000000000000
310
0000000000000000000000000000000000000000000000000000000000000000000000000000000000000000000000000000000000000000000000000000000000000000000000000000000000000000000000000000000000000000000000000000000000000000000000000000000000F5F5F50000F5000000F50000F500
310
F5F5F5F50000F5F50000000000F50000000000000000000000000000000000000000000000000000000000000000000000000000000000000000000000000000000000000000000000000000000000000000000000F50000F500F5F5000000F50000F500000000F500F5000000000000000000000000000000000000000000
310
00000000000000000000000000000000000000000000000000000000000000000000000000000000000000000000000000000000000000000000000000000000000000000000000000000000000000000000000000000000000000000000000000000000000000000000000000000000000000F5F500F50000F5000000F500
310
00F5F5F500F5000000F5000000000000F500000000000000000000000000000000000000000000000000000000000000000000000000000000000000000000000000000000000000000000000000000000000000000000F5F50000F5F5F5F5000000F50000F500000000F5F500000000000000000000000000000000000000
310
000000000000000000000000000000000000000000000000000000000000000000000000000000000000000000000000000000000000000000000000000000000000000000000000000000000000000000000000000000000000000000000000000000000000000000000000000000000000000000F5F500F5000000F50000
310
00F50000F5F50000F50000F5000000000000F500000000000000000000000000000000000000000000000000000000000000000000000000000000000000000000000000000000000000000000000000000000000000000000F500F50000F5F500F5000000F50000F500000000F50000000000000000000000000000000000
310
0000000000000000000000000000000000000000000000000000000000000000000000000000000000000000000000000000000000000000000000000000000000000000000000000000000000000000000000000000000000000000000000000000000000000000000000000000000000000000000000F5F50000F5000000
310
F5000000F50000F5000000F500F500000000000000F5000000000000000000000000000000000000000000000000000000000000000000000000000000000000000000000000000000000000000000000000000000000000000000F500F5000000F50000F5000000F50000F5000000F5000000000000000000000000000000
310
00000000000000000000000000000000000000000000000000000000000000000000000000000000000000000000000000000000000000000000000000000000000000000000000000000000000000000000000000000000000000000000000000000000000000000000000000000000000000000000000000F5F5F50000F5
310
000000F5000000F50000F50000F5F5F50000000000000000F50000000000000000000000000000000000000000000000000000000000000000000000000000000000000000000000000000000000000000000000000000000000000000F50000F5000000F50000F5000000F50000F50000F500000000000000000000000000
310
000000000000000000000000000000000000000000000000000000000000000000000000000000000000000000000000000000000000000000000000000000000000000000000000000000000000000000000000000000000000000000000000000000000000000000000000000000000000000000000000000000F5F5F5F5
310
F5F5F5F5F5F5F5F5F5F5F5F5F5F5F5F5F5F50000000000000000F50000000000000000000000000000000000000000000000000000000000000000000000000000000000000000000000000000000000000000000000000000000000000000F5F5F5F5F5F5F5F5F5F5F5F5F5F5F5F5F5F5F5F5F50000000000000000000000
310
0000000000000000000000000000000000000000000000000000000000000000000000000000000000000000000000000000000000000000000000000000000000000000000000000000000000000000000000000000000000000000000000000000000000000000000000000000000000000000000000000000000000F500
310
0000000000000000000000F500000000000000F5000000000000000000F5000000000000000000000000000000000000000000000000000000000000000000000000000000000000000000000000000000000000000000000000000000000000000000000000000000000000000000000000000000F5000000000000000000
310
00000000000000000000000000000000000000000000000000000000000000000000000000000000000000000000000000000000000000000000000000000000000000000000000000000000000000000000000000000000000000000000000000000000000000000000000000000000000000000000000000000000000000
310
F5000000000000000000000000F5F5000000000000F500000000000000000000F50000000000000000000000000000000000000000000000000000000000000000000000000000000000000000000000000000000000000000000000000000000000000000000000000000000000000000000000000000F500000000000000
310
00000000000000000000000000000000000000000000000000000000000000000000000000000000000000000000000000000000000000000000000000000000000000000000000000000000000000000000000000000000000000000000000000000000000000000000000000000000000000000000000000000000000000
310
0000F500000000000000000000000000F500000000000000F5000000000000000000F50000000000000000000000000000000000000000000000000000000000000000000000000000000000000000000000000000000000000000000000000000000000000000000000000000000000000000000000000000F50000000000
310
00000000000000000000000000000000000000000000000000000000000000000000000000000000000000000000000000000000000000000000000000000000000000000000000000000000000000000000000000000000000000000000000000000000000000000000000000000000000000000000000000000000000000
310
00000000F50000000000000000000000000000F5000000000000F500000000000000000000F500000000000000000000000000000000000000000000000000000000000000000000000000000000000000000000000000000000000000000000000000000000000000000000000000000000000000000000000000F5000000
310
00000000000000000000000000000000000000000000000000000000000000000000000000000000000000000000000000000000000000000000000000000000000000000000000000000000000000000000000000000000000000000000000000000000000000000000000000000000000000000000000000000000000000
310
000000000000F50000000000000000000000000000F500000000000000F500000000000000000000F5000000000000000000000000000000000000000000000000000000000000000000000000000000000000000000000000000000000000000000000000000000000000000000000000000000000000000000000000F500
310
00000000000000000000000000000000000000000000000000000000000000000000000000000000000000000000000000000000000000000000000000000000000000000000000000000000000000000000000000000000000000000000000000000000000000000000000000000000000000000000000000000000000000
310
0000000000000000F5000000000000000000000000000000F500000000000000F500000000000000000000F50000000000000000000000000000000000000000000000000000000000000000000000000000000000000000000000000000000000000000000000000000000000000000000000000000000000000000000000
310
F5000000000000000000000000000000000000000000000000000000000000000000000000000000000000000000000000000000000000000000000000000000000000000000000000000000000000000000000000000000000000000000000000000000000000000000000000000000000000000000000000000000000000
310
00000000000000000000F500000000000000000000000000000000F5000000000000F500000000000000000000F5000000000000000000000000000000000000000000000000000000000000000000000000000000000000000000000000000000000000000000000000000000000000000000000000000000000000000000
310
0000F500000000000000000000000000000000000000000000000000000000000000000000000000000000000000000000000000000000000000000000000000000000000000000000000000000000000000000000000000000000000000000000000000000000000000000000000000000000000000000000000000000000
310
000000000000000000000000F500000000000000000000000000000000F500000000000000F500000000000000000000F5000000000000000000000000000000000000000000000000000000000000000000000000000000000000000000000000000000000000000000000000000000000000000000000000000000000000
310
00000000F50000000000000000000000000000000000000000000000000000000000000000000000000000000000000000000000000000000000000000000000000000000000000000000000000000000000000000000000000000000000000000000000000000000000000000000000000000000000000000000000000000
310
0000000000000000000000000000F50000000000000000000000000000000000F500000000000000F500000000000000000000F5000000000000000000000000000000000000000000000000000000000000000000000000000000000000000000000000000000000000000000000000000000000000000000000000000000
310
000000000000F5000000000000000000000000000000000000000000000000000000000000000000000000000000000000000000000000000000000000000000000000000000000000000000000000000000000000000000000000000000000000000000000000000000000000000000000000000000000000000000000000
310
00000000000000000000000000000000F5000000000000000000000000000000000000F5000000000000F500000000000000000000F500000000000000000000000000000000000000000000000000000000000000000000000000000000000000000000000000000000000000000000000000000000000000000000000000
310
0000000000000000F500000000000000000000000000000000000000000000000000000000000000000000000000000000000000000000000000000000000000000000000000000000000000000000000000000000000000000000000000000000000000000000000000000000000000000000000000000000000000000000
310
000000000000000000000000000000000000F5000000000000000000000000000000000000F500000000000000F500000000000000000000F500000000000000000000000000000000000000000000000000000000000000000000000000000000000000000000000000000000000000000000000000000000000000000000
310
00000000000000000000F50000000000000000000000000000000000000000000000000000000000000000000000000000000000000000000000000000000000000000000000000000000000000000000000000000000000000000000000000000000000000000000000000000000000000000000000000000000000000000
310
0000000000000000000000000000000000000000F500000000000000000000000000000000000000F500000000000000F500000000000000000000F500000000000000000000000000000000000000000000000000000000000000000000000000000000000000000000000000000000000000000000000000000000000000
310
000000000000000000000000F5000000000000000000000000000000000000000000000000000000000000000000000000000000000000000000000000000000000000000000000000000000000000000000000000000000000000000000000000000000000000000000000000000000000000000000000000000000000000
310
00000000000000000000000000000000000000000000F500000000000000000000000000000000000000F500000000000000F500000000000000000000F50000000000000000000000000000000000000000000000000000000000000000000000000000000000000000000000000000000000000000000000000000000000
310
0000000000000000000000000000F500000000000000000000000000000000000000000000000000000000000000000000000000000000000000000000000000000000000000000000000000000000000000000000000000000000000000000000000000000000000000000000000000000000000000000000000000000000
310
000000000000000000000000000000000000000000000000F5F5F5F5F5F5F5F5F5F5F5F5F5F5F5F5F5F5F5F5F5F5F5F5F5F5F5F5F5F5F5F5F5F5F5F5F5F5F5F5F5F5F5F5F5F5F5F5F5F5F5F5F5F5F5F5F5F5F5F5F5F5F5F5F5F5F5F5F5F5F5F5F5F5F5F5F5F5F5F5F5F5F5F5F5F5F5F5F5F5F5F5F5F5F5F5F5F5F5F5F5F5F5
310
F5F5F5F5F5F5F5F5F5F5F5F5F5F5F5F5F50000000000000000000000000000000000000000000000000000000000000000000000000000000000000000000000000000000000000000000000000000000000000000000000000000000000000000000000000000000000000000000000000000000000000000000000000000
310
000000000000000000000000000000000000000000000000000000000000000000000000000000000000000000000000F500000000000000F500000000000000000000F50000000000000000000000000000000000000000000000000000000000000000000000000000000000000000000000000000000000000000000000
310
00000000000000000000000000000000000000000000000000000000000000000000000000000000000000000000000000000000000000000000000000000000000000000000000000000000000000000000000000000000000000000000000000000000000000000000000000000000000000000000000000000000000000
310
0000000000000000000000000000000000000000000000000000000000000000000000000000000000000000000000000000F500000000000000F500000000000000000000F5000000000000000000000000000000000000000000000000000000000000000000000000000000000000000000000000000000000000000000
310
00000000000000000000000000000000000000000000000000000000000000000000000000000000000000000000000000000000000000000000000000000000000000000000000000000000000000000000000000000000000000000000000000000000000000000000000000000000000000000000000000000000000000
310
0000000000000000000000000000000000000000000000000000000000000000000000000000000000000000000000000000000000F500000000000000F500000000000000000000F5000000000000000000000000000000000000000000000000000000000000000000000000000000000000000000000000000000000000
310
00000000000000000000000000000000000000000000000000000000000000000000000000000000000000000000000000000000000000000000000000000000000000000000000000000000000000000000000000000000000000000000000000000000000000000000000000000000000000000000000000000000000000
310
0000000000000000000000000000000000000000000000000000000000000000000000000000000000000000000000000000000000000000F5000000000000F50000000000000000000000F5000000000000000000000000000000000000000000000000000000000000000000000000000000000000000000000000000000
310
00000000000000000000000000000000000000000000000000000000000000000000000000000000000000000000000000000000000000000000000000000000000000000000000000000000000000000000000000000000000000000000000000000000000000000000000000000000000000000000000000000000000000
310
00000000000000000000000000000000000000000000000000000000000000000000000000000000000000000000000000000000000000000000F500000000000000F500000000000000000000F50000F5F5F5F5F5F5F5F5F5F5F5F5F5F5F5F5F5F5F5F5000000000000000000000000000000000000000000000000000000
310
00000000000000000000000000000000000000000000000000000000000000000000000000000000000000000000000000000000000000000000000000000000000000000000000000000000000000000000000000000000000000000000000000000000000000000000000000000000000000000000000000000000000000
310
00000000000000000000000000000000000000000000000000000000000000000000000000000000000000000000000000000000000000000000000000F500000000000000F500000000000000000000F5F5F5F5F5F5F5F5F5F5F5F5F5F5F5F5F5F5F5F5F5F500000000000000000000000000000000000000000000000000
310
00000000000000000000000000000000000000000000000000000000000000000000000000000000000000000000000000000000000000000000000000000000000000000000000000000000000000000000000000000000000000000000000000000000000000000000000000000000000000000000000000000000000000
310
000000000000000000000000000000000000000000000000000000000000000000000000000000000000000000000000000000000000000000000000000000F500000000000000F500000000000000000000000000000000000000000000000000000000000000000000000000000000000000000000000000000000000000
310
00000000000000000000000000000000000000000000000000000000000000000000000000000000000000000000000000000000000000000000000000000000000000000000000000000000000000000000000000000000000000000000000000000000000000000000000000000000000000000000000000000000000000
310
000000000000000000000000000000000000000000000000000000000000000000000000000000000000000000000000000000000000000000000000000000000000F500000000000000F500000000000000000000000000000000000000000000000000000000000000000000000000000000000000000000000000000000
310
00000000000000000000000000000000000000000000000000000000000000000000000000000000000000000000000000000000000000000000000000000000000000000000000000000000000000000000000000000000000000000000000000000000000000000000000000000000000000000000000000000000000000
310
000000000000000000000000000000000000000000000000000000000000000000000000000000000000000000000000000000000000000000000000000000000000000000F500000000000000F500000000000000000000000000000000000000000000000000000000000000000000000000000000000000000000000000
310
00000000000000000000000000000000000000000000000000000000000000000000000000000000000000000000000000000000000000000000000000000000000000000000000000000000000000000000000000000000000000000000000000000000000000000000000000000000000000000000000000000000000000
310
0000000000000000000000000000000000000000000000000000000000000000000000000000000000000000000000000000000000000000000000000000000000000000000000F500000000000000F5000000F5F5F5F5F5F5F5F5F5F5F5F5F5F5F5F5F5F5F5F5F5F5F5F5F5F5F5F5F5F5F5F5F5F5F5F50000000000000000
310
00000000000000000000000000000000000000000000000000000000000000000000000000000000000000000000000000000000000000000000000000000000000000000000000000000000000000000000000000000000000000000000000000000000000000000000000000000000000000000000000000000000000000
310
0000000000000000000000000000000000000000000000000000000000000000000000000000000000000000000000000000000000000000000000000000000000000000000000000000F500000000000000F5F5F5F5F5F5F5F5F5F5F5F5F5F5F5F5F5F5F5F5F5F5F5F5F5F5F5F5F5F5F5F5F5F5F5F5F5F5F5000000000000
310
00000000000000000000000000000000000000000000000000000000000000000000000000000000000000000000000000000000000000000000000000000000000000000000000000000000000000000000000000000000000000000000000000000000000000000000000000000000000000000000000000000000000000
310
0000000000000000000000000000000000000000000000000000000000000000000000000000000000000000000000000000000000000000000000000000000000000000000000000000000000F500000000000000000000000000000000000000000000000000000000000000000000000000000000000000000000000000
310
00000000000000000000000000000000000000000000000000000000000000000000000000000000000000000000000000000000000000000000000000000000000000000000000000000000000000000000000000000000000000000000000000000000000000000000000000000000000000000000000000000000000000
310
00000000000000000000000000000000000000000000000000000000000000000000000000000000000000000000000000000000000000000000000000000000000000000000000000000000000000F50000000000000000000000000000000000000000000000000000000000000000000000000000000000000000000000
310
00000000000000000000000000000000000000000000000000000000000000000000000000000000000000000000000000000000000000000000000000000000000000000000000000000000000000000000000000000000000000000000000000000000000000000000000000000000000000000000000000000000000000
310
00000000000000000000000000000000000000000000000000000000000000000000000000000000000000000000000000000000000000000000000000000000000000000000000000000000000000000000F50000000000000000000000000000000000000000000000000000000000000000000000000000000000000000
310
00000000000000000000000000000000000000000000000000000000000000000000000000000000000000000000000000000000000000000000000000000000000000000000000000000000000000000000000000000000000000000000000000000000000000000000000000000000000000000000000000000000000000
310
000000000000000000000000000000000000000000000000000000000000000000000000000000000000000000000000000000000000000000000000000000000000000000000000000000000000000000000000F5000000F5F5F5F5F5F5F5F5F5F5F5F5F5F500000000000000000000000000000000000000000000000000
310
00000000000000000000000000000000000000000000000000000000000000000000000000000000000000000000000000000000000000000000000000000000000000000000000000000000000000000000000000000000000000000000000000000000000000000000000000000000000000000000000000000000000000
310
000000000000000000000000000000000000000000000000000000000000000000000000000000000000000000000000000000000000000000000000000000000000000000000000000000000000000000000000000000F5F5F5F5F5F5F5F5F5F5F5F5F5F5F5F5F50000000000000000000000000000000000000000000000
310
00000000000000000000000000000000000000000000000000000000000000000000000000000000000000000000000000000000000000000000000000000000000000000000000000000000000000000000000000000000000000000000000000000000000000000000000000000000000000000000000000000000000000
310
00000000000000000000000000000000000000000000000000000000000000000000000000000000000000000000000000000000000000000000000000000000000000000000000000000000000000000000000000000000000000000000000000000000000000000000000000000000000000000000000000000000000000
310
00000000000000000000000000000000000000000000000000000000000000000000000000000000000000000000000000000000000000000000000000000000000000000000000000000000000000000000000000000000000000000000000000000000000000000000000000000000000000000000000000000000000000
310
00000000000000000000000000000000000000000000000000000000000000000000000000000000000000000000000000000000000000000000000000000000000000000000000000000000000000000000000000000000000000000000000000000000000000000000000000000000000000000000000000000000000000
310
00000000000000000000000000000000000000000000000000000000000000000000000000000000000000000000000000000000000000000000000000000000000000000000000000000000000000000000000000000000000000000000000000000000000000000000000000000000000000000000000000000000000000
310
00000000000000000000000000000000000000000000000000000000000000000000000000000000000000000000000000000000000000000000000000000000000000000000000000000000000000000000000000000000000000000000000000000000000000000000000000000000000000000000000000000000000000
310
00000000000000000000000000000000000000000000000000000000000000000000000000000000000000000000000000000000000000000000000000000000000000000000000000000000000000000000000000000000000000000000000000000000000000000000000000000000000000000000000000000000000000
310
00000000000000000000000000000000000000000000000000000000000000000000000000000000000000000000000000000000000000000000000000000000000000000000000000000000000000000000000000000000000000000000000000000000000000000000000000000000000000000000000000000000000000
310
00000000000000000000000000000000000000000000000000000000000000000000000000000000000000000000000000000000000000000000000000000000000000000000000000000000000000000000000000000000000000000000000000000000000000000000000000000000000000000000000000000000000000
310
00000000000000000000000000000000000000000000000000000000000000000000000000000000000000000000000000000000000000000000000000000000000000000000000000000000000000000000000000000000000000000000000000000000000000000000000000000000000000000000000000000000000000
310
00000000000000000000000000000000000000000000000000000000000000000000000000000000000000000000000000000000000000000000000000000000000000000000000000000000000000000000000000000000000000000000000000000000000000000000000000000000000000000000000000000000000000
310
00000000000000000000000000000000000000000000000000000000000000000000000000000000000000000000000000000000000000000000000000000000000000000000000000000000000000000000000000000000000000000000000000000000000000000000000000000000000000000000000000000000000000
310
00000000000000000000000000000000000000000000000000000000000000000000000000000000000000000000000000000000000000000000000000000000000000000000000000000000000000000000000000000000000000000000000000000000000000000000000000000000000000000000000000000000000000
310
00000000000000000000000000000000000000000000000000000000000000000000000000000000000000000000000000000000000000000000000000000000000000000000000000000000000000000000000000000000000000000000000000000000000000000000000000000000000000000000000000000000000000
310
00000000000000000000000000000000000000000000000000000000000000000000000000000000000000000000000000000000000000000000000000000000000000000000000000000000000000000000000000000000000000000000000000000000000000000000000000000000000000000000000000000000000000
310
00000000000000000000000000000000000000000000000000000000000000000000000000000000000000000000000000000000000000000000000000000000000000000000000000000000000000000000000000000000000000000000000000000000000000000000000000000000000000000000000000000000000000
310
00000000000000000000000000000000000000000000000000000000000000000000000000000000000000000000000000000000000000000000000000000000000000000000000000000000000000000000000000000000000000000000000000000000000000000000000000000000000000000000000000000000000000
310
00000000000000000000000000000000000000000000000000000000000000000000000000000000000000000000000000000000000000000000000000000000000000000000000000000000000000000000000000000000000000000000000000000000000000000000000000000000000000000000000000000000000000
310
00000000000000000000000000000000000000000000000000000000000000000000000000000000000000000000000000000000000000000000000000000000000000000000000000000000000000000000000000000000000000000000000000000000000000000000000000000000000000000000000000000000000000
310
00000000000000000000000000000000000000000000000000000000000000000000000000000000000000000000000000000000000000000000000000000000000000000000000000000000000000000000000000000000000000000000000000000000000000000000000000000000000000000000000000000000000000
310
00000000000000000000000000000000000000000000000000000000000000000000000000000000000000000000000000000000000000000000000000000000000000000000000000000000000000000000000000000000000000000000000000000000000000000000000000000000000000000000000000000000000000
310
00000000000000000000000000000000000000000000000000000000000000000000000000000000000000000000000000000000000000000000000000000000000000000000000000000000000000000000000000000000000000000000000000000000000000000000000000000000000000000000000000000000000000
310
00000000000000000000000000000000000000000000000000000000000000000000000000000000000000000000000000000000000000000000000000000000000000000000000000000000000000000000000000000000000000000000000000000000000000000000000000000000000000000000000000000000000000
310
00000000000000000000000000000000000000000000000000000000000000000000000000000000000000000000000000000000000000000000000000000000000000000000000000000000000000000000000000000000000000000000000000000000000000000000000000000000000000000000000000000000000000
310
00000000000000000000000000000000000000000000000000000000000000000000000000000000000000000000000000000000000000000000000000000000000000000000000000000000000000000000000000000000000000000000000000000000000000000000000000000000000000000000000000000000000000
310
00000000000000000000000000000000000000000000000000000000000000000000000000000000000000000000000000000000000000000000000000000000000000000000000000000000000000000000000000000000000000000000000000000000000000000000000000000000000000000000000000000000000000
310
00000000000000000000000000000000000000000000000000000000000000000000000000000000000000000000000000000000000000000000000000000000000000000000000000000000000000000000000000000000000000000000000000000000000000000000000000000000000000000000000000000000000000
310
00000000000000000000000000000000000000000000000000000000000000000000000000000000000000000000000000000000000000000000000000000000000000000000000000000000000000000000000000000000000000000000000000000000000000000000000000000000000000000000000000000000000000
310
00000000000000000000000000000000000000000000000000000000000000000000000000000000000000000000000000000000000000000000000000000000000000000000000000000000000000000000000000000000000000000000000000000000000000000000000000000000000000000000000000000000000000
310
00000000000000000000000000000000000000000000000000000000000000000000000000000000000000000000000000000000000000000000000000000000000000000000000000000000000000000000000000000000000000000000000000000000000000000000000000000000000000000000000000000000000000
310
00000000000000000000000000000000000000000000000000000000000000000000000000000000000000000000000000000000000000000000000000000000000000000000000000000000000000000000000000000000000000000000000000000000000000000000000000000000000000000000000000000000000000
310
00000000000000000000000000000000000000000000000000000000000000000000000000000000000000000000000000000000000000000000000000000000000000000000000000000000000000000000000000000000000000000000000000000000000000000000000000000000000000000000000000000000000000
310
00000000000000000000000000000000000000000000000000000000000000000000000000000000000000000000000000000000000000000000000000000000000000000000000000000000000000000000000000000000000000000000000000000000000000000000000000000000000000000000000000000000000000
310
00000000000000000000000000000000000000000000000000000000000000000000000000000000000000000000000000000000000000000000000000000000000000000000000000000000000000000000000000000000000000000000000000000000000000000000000000000000000000000000000000000000000000
310
00000000000000000000000000000000000000000000000000000000000000000000000000000000000000000000000000000000000000000000000000000000000000000000000000000000000000000000000000000000000000000000000000000000000000000000000000000000000000000000000000000000000000
310
00000000000000000000000000000000000000000000000000000000000000000000000000000000000000000000000000000000000000000000000000000000000000000000000000000000000000000000000000000000000000000000000000000000000000000000000000000000000000000000000000000000000000
310
00000000000000000000000000000000000000000000000000000000000000000000000000000000000000000000000000000000000000000000000000000000000000000000000000000000000000000000000000000000000000000000000000000000000000000000000000000000000000000000000000000000000000
310
00000000000000000000000000000000000000000000000000000000000000000000000000000000000000000000000000000000000000000000000000000000000000000000000000000000000000000000000000000000000000000000000000000000000000000000000000000000000000000000000000000000000000
310
00000000000000000000000000000000000000000000000000000000000000000000000000000000000000000000000000000000000000000000000000000000000000000000000000000000000000000000000000000000000000000000000000000000000000000000000000000000000000000000000000000000000000
310
00000000000000000000000000000000000000000000000000000000000000000000000000000000000000000000000000000000000000000000000000000000000000000000000000000000000000000000000000000000000000000000000000000000000000000000000000000000000000000000000000000000000000
310
00000000000000000000000000000000000000000000000000000000000000000000000000000000000000000000000000000000000000000000000000000000000000000000000000000000000000000000000000000000000000000000000000000000000000000000000000000000000000000000000000000000000000
310
00000000000000000000000000000000000000000000000000000000000000000000000000000000000000000000000000000000000000000000000000000000000000000000000000000000000000000000000000000000000000000000000000000000000000000000000000000000000000000000000000000000000000
310
00000000000000000000000000000000000000000000000000000000000000000000000000000000000000000000000000000000000000000000000000000000000000000000000000000000000000000000000000000000000000000000000000000000000000000000000000000000000000000000000000000000000000
310
00000000000000000000000000000000000000000000000000000000000000000000000000000000000000000000000000000000000000000000000000000000000000000000000000000000000000000000000000000000000000000000000000000000000000000000000000000000000000000000000000000000000000
310
00000000000000000000000000000000000000000000000000000000000000000000000000000000000000000000000000000000000000000000000000000000000000000000000000000000000000000000000000000000000000000000000000000000000000000000000000000000000000000000000000000000000000
310
00000000000000000000000000000000000000000000000000000000000000000000000000000000000000000000000000000000000000000000000000000000000000000000000000000000000000000000000000000000000000000000000000000000000000000000000000000000000000000000000000000000000000
310
00000000000000000000000000000000000000000000000000000000000000000000000000000000000000000000000000000000000000000000000000000000000000000000000000000000000000000000000000000000000000000000000000000000000000000000000000000000000000000000000000000000000000
310
00000000000000000000000000000000000000000000000000000000000000000000000000000000000000000000000000000000000000000000000000000000000000000000000000000000000000000000000000000000000000000000000000000000000000000000000000000000000000000000000000000000000000
310
00000000000000000000000000000000000000000000000000000000000000000000000000000000000000000000000000000000000000000000000000000000000000000000000000000000000000000000000000000000000000000000000000000000000000000000000000000000000000000000000000000000000000
310
00000000000000000000000000000000000000000000000000000000000000000000000000000000000000000000000000000000000000000000000000000000000000000000000000000000000000000000000000000000000000000000000000000000000000000000000000000000000000000000000000000000000000
310
00000000000000000000000000000000000000000000000000000000000000000000000000000000000000000000000000000000000000000000000000000000000000000000000000000000000000000000000000000000000000000000000000000000000000000000000000000000000000000000000000000000000000
310
00000000000000000000000000000000000000000000000000000000000000000000000000000000000000000000000000000000000000000000000000000000000000000000000000000000000000000000000000000000000000000000000000000000000000000000000000000000000000000000000000000000000000
310
00000000000000000000000000000000000000000000000000000000000000000000000000000000000000000000000000000000000000000000000000000000000000000000000000000000000000000000000000000000000000000000000000000000000000000000000000000000000000000000000000000000000000
310
00000000000000000000000000000000000000000000000000000000000000000000000000000000000000000000000000000000000000000000000000000000000000000000000000000000000000000000000000000000000000000000000000000000000000000000000000000000000000000000000000000000000000
310
00000000000000000000000000000000000000000000000000000000000000000000000000000000000000000000000000000000000000000000000000000000000000000000000000000000000000000000000000000000000000000000000000000000000000000000000000000000000000000000000000000000000000
310
00000000000000000000000000000000000000000000000000000000000000000000000000000000000000000000000000000000000000000000000000000000000000000000000000000000000000000000000000000000000000000000000000000000000000000000000000000000000000000000000000000000000000
310
00000000000000000000000000000000000000000000000000000000000000000000000000000000000000000000000000000000000000000000000000000000000000000000000000000000000000000000000000000000000000000000000000000000000000000000000000000000000000000000000000000000000000
310
00000000000000000000000000000000000000000000000000000000000000000000000000000000000000000000000000000000000000000000000000000000000000000000000000000000000000000000000000000000000000000000000000000000000000000000000000000000000000000000000000000000000000
310
00000000000000000000000000000000000000000000000000000000000000000000000000000000000000000000000000000000000000000000000000000000000000000000000000000000000000000000000000000000000000000000000000000000000000000000000000000000000000000000000000000000000000
310
00000000000000000000000000000000000000000000000000000000000000000000000000000000000000000000000000000000000000000000000000000000000000000000000000000000000000000000000000000000000000000000000000000000000000000000000000000000000000000000000000000000000000
310
00000000000000000000000000000000000000000000000000000000000000000000000000000000000000000000000000000000000000000000000000000000000000000000000000000000000000000000000000000000000000000000000000000000000000000000000000000000000000000000000000000000000000
310
00000000000000000000000000000000000000000000000000000000000000000000000000000000000000000000000000000000000000000000000000000000000000000000000000000000000000000000000000000000000000000000000000000000000000000000000000000000000000000000000000000000000000
310
00000000000000000000000000000000000000000000000000000000000000000000000000000000000000000000000000000000000000000000000000000000000000000000000000000000000000000000000000000000000000000000000000000000000000000000000000000000000000000000000000000000000000
310
00000000000000000000000000000000000000000000000000000000000000000000000000000000000000000000000000000000000000000000000000000000000000000000000000000000000000000000000000000000000000000000000000000000000000000000000000000000000000000000000000000000000000
310
00000000000000000000000000000000000000000000000000000000000000000000000000000000000000000000000000000000000000000000000000000000000000000000000000000000000000000000000000000000000000000000000000000000000000000000000000000000000000000000000000000000000000
310
00000000000000000000000000000000000000000000000000000000000000000000000000000000000000000000000000000000000000000000000000000000000000000000000000000000000000000000000000000000000000000000000000000000000000000000000000000000000000000000000000000000000000
310
00000000000000000000000000000000000000000000000000000000000000000000000000000000000000000000000000000000000000000000000000000000000000000000000000000000000000000000000000000000000000000000000000000000000000000000000000000000000000000000000000000000000000
310
00000000000000000000000000000000000000000000000000000000000000000000000000000000000000000000000000000000000000000000000000000000000000000000000000000000000000000000000000000000000000000000000000000000000000000000000000000000000000000000000000000000000000
310
00000000000000000000000000000000000000000000000000000000000000000000000000000000000000000000000000000000000000000000000000000000000000000000000000000000000000000000000000000000000000000000000000000000000000000000000000000000000000000000000000000000000000
310
00000000000000000000000000000000000000000000000000000000000000000000000000000000000000000000000000000000000000000000000000000000000000000000000000000000000000000000000000000000000000000000000000000000000000000000000000000000000000000000000000000000000000
310
00000000000000000000000000000000000000000000000000000000000000000000000000000000000000000000000000000000000000000000000000000000000000000000000000000000000000000000000000000000000000000000000000000000000000000000000000000000000000000000000000000000000000
310
00000000000000000000000000000000000000000000000000000000000000000000000000000000000000000000000000000000000000000000000000000000000000000000000000000000000000000000000000000000000000000000000000000000000000000000000000000000000000000000000000000000000000
310
00000000000000000000000000000000000000000000000000000000000000000000000000000000000000000000000000000000000000000000000000000000000000000000000000000000000000000000000000000000000000000000000000000000000000000000000000000000000000000000000000000000000000
310
00000000000000000000000000000000000000000000000000000000000000000000000000000000000000000000000000000000000000000000000000000000000000000000000000000000000000000000000000000000000000000000000000000000000000000000000000000000000000000000000000000000000000
310
00000000000000000000000000000000000000000000000000000000000000000000000000000000000000000000000000000000000000000000000000000000000000000000000000000000000000000000000000000000000000000000000000000000000000000000000000000000000000000000000000000000000000
310
00000000000000000000000000000000000000000000000000000000000000000000000000000000000000000000000000000000000000000000000000000000000000000000000000000000000000000000000000000000000000000000000000000000000000000000000000000000000000000000000000000000000000
310
00000000000000000000000000000000000000000000000000000000000000000000000000000000000000000000000000000000000000000000000000000000000000000000000000000000000000000000000000000000000000000000000000000000000000000000000000000000000000000000000000000000000000
310
00000000000000000000000000000000000000000000000000000000000000000000000000000000000000000000000000000000000000000000000000000000000000000000000000000000000000000000000000000000000000000000000000000000000000000000000000000000000000000000000000000000000000
310
00000000000000000000000000000000000000000000000000000000000000000000000000000000000000000000000000000000000000000000000000000000000000000000000000000000000000000000000000000000000000000000000000000000000000000000000000000000000000000000000000000000000000
310
00000000000000000000000000000000000000000000000000000000000000000000000000000000000000000000000000000000000000000000000000000000000000000000000000000000000000000000000000000000000000000000000000000000000000000000000000000000000000000000000000000000000000
310
00000000000000000000000000000000000000000000000000000000000000000000000000000000000000000000000000000000000000000000000000000000000000000000000000000000000000000000000000000000000000000000000000000000000000000000000000000000000000000000000000000000000000
310
00000000000000000000000000000000000000000000000000000000000000000000000000000000000000000000000000000000000000000000000000000000000000000000000000000000000000000000000000000000000000000000000000000000000000000000000000000000000000000000000000000000000000
310
00000000000000000000000000000000000000000000000000000000000000000000000000000000000000000000000000000000000000000000000000000000000000000000000000000000000000000000000000000000000000000000000000000000000000000000000000000000000000000000000000000000000000
310
00000000000000000000000000000000000000000000000000000000000000000000000000000000000000000000000000000000000000000000000000000000000000000000000000000000000000000000000000000000000000000000000000000000000000000000000000000000000000000000000000000000000000
310
00000000000000000000000000000000000000000000000000000000000000000000000000000000000000000000000000000000000000000000000000000000000000000000000000000000000000000000000000000000000000000000000000000000000000000000000000000000000000000000000000000000000000
310
00000000000000000000000000000000000000000000000000000000000000000000000000000000000000000000000000000000000000000000000000000000000000000000000000000000000000000000000000000000000000000000000000000000000000000000000000000000000000000000000000000000000000
310
00000000000000000000000000000000000000000000000000000000000000000000000000000000000000000000000000000000000000000000000000000000000000000000000000000000000000000000000000000000000000000000000000000000000000000000000000000000000000000000000000000000000000
310
00000000000000000000000000000000000000000000000000000000000000000000000000000000000000000000000000000000000000000000000000000000000000000000000000000000000000000000000000000000000000000000000000000000000000000000000000000000000000000000000000000000000000
310
00000000000000000000000000000000000000000000000000000000000000000000000000000000000000000000000000000000000000000000000000000000000000000000000000000000000000000000000000000000000000000000000000000000000000000000000000000000000000000000000000000000000000
310
00000000000000000000000000000000000000000000000000000000000000000000000000000000000000000000000000000000000000000000000000000000000000000000000000000000000000000000000000000000000000000000000000000000000000000000000000000000000000000000000000000000000000
310
00000000000000000000000000000000000000000000000000000000000000000000000000000000000000000000000000000000000000000000000000000000000000000000000000000000000000000000000000000000000000000000000000000000000000000000000000000000000000000000000000000000000000
310
00000000000000000000000000000000000000000000000000000000000000000000000000000000000000000000000000000000000000000000000000000000000000000000000000000000000000000000000000000000000000000000000000000000000000000000000000000000000000000000000000000000000000
310
00000000000000000000000000000000000000000000000000000000000000000000000000000000000000000000000000000000000000000000000000000000000000000000000000000000000000000000000000000000000000000000000000000000000000000000000000000000000000000000000000000000000000
310
00000000000000000000000000000000000000000000000000000000000000000000000000000000000000000000000000000000000000000000000000000000000000000000000000000000000000000000000000000000000000000000000000000000000000000000000000000000000000000000000000000000000000
310
00000000000000000000000000000000000000000000000000000000000000000000000000000000000000000000000000000000000000000000000000000000000000000000000000000000000000000000000000000000000000000000000000000000000000000000000000000000000000000000000000000000000000
310
00000000000000000000000000000000000000000000000000000000000000000000000000000000000000000000000000000000000000000000000000000000000000000000000000000000000000000000000000000000000000000000000000000000000000000000000000000000000000000000000000000000000000
310
00000000000000000000000000000000000000000000000000000000000000000000000000000000000000000000000000000000000000000000000000000000000000000000000000000000000000000000000000000000000000000000000000000000000000000000000000000000000000000000000000000000000000
310
00000000000000000000000000000000000000000000000000000000000000000000000000000000000000000000000000000000000000000000000000000000000000000000000000000000000000000000000000000000000000000000000000000000000000000000000000000000000000000000000000000000000000
310
00000000000000000000000000000000000000000000000000000000000000000000000000000000000000000000000000000000000000000000000000000000000000000000000000000000000000000000000000000000000000000000000000000000000000000000000000000000000000000000000000000000000000
310
00000000000000000000000000000000000000000000000000000000000000000000000000000000000000000000000000000000000000000000000000000000000000000000000000000000000000000000000000000000000000000000000000000000000000000000000000000000000000000000000000000000000000
310
00000000000000000000000000000000000000000000000000000000000000000000000000000000000000000000000000000000000000000000000000000000000000000000000000000000000000000000000000000000000000000000000000000000000000000000000000000000000000000000000000000000000000
310
00000000000000000000000000000000000000000000000000000000000000000000000000000000000000000000000000000000000000000000000000000000000000000000000000000000000000000000000000000000000000000000000000000000000000000000000000000000000000000000000000000000000000
310
00000000000000000000000000000000000000000000000000000000000000000000000000000000000000000000000000000000000000000000000000000000000000000000000000000000000000000000000000000000000000000000000000000000000000000000000000000000000000000000000000000000000000
310
00000000000000000000000000000000000000000000000000000000000000000000000000000000000000000000000000000000000000000000000000000000000000000000000000000000000000000000000000000000000000000000000000000000000000000000000000000000000000000000000000000000000000
310
00000000000000000000000000000000000000000000000000000000000000000000000000000000000000000000000000000000000000000000000000000000000000000000000000000000000000000000000000000000000000000000000000000000000000000000000000000000000000000000000000000000000000
310
00000000000000000000000000000000000000000000000000000000000000000000000000000000000000000000000000000000000000000000000000000000000000000000000000000000000000000000000000000000000000000000000000000000000000000000000000000000000000000000000000000000000000
310
00000000000000000000000000000000000000000000000000000000000000000000000000000000000000000000000000000000000000000000000000000000000000000000000000000000000000000000000000000000000000000000000000000000000000000000000000000000000000000000000000000000000000
310
00000000000000000000000000000000000000000000000000000000000000000000000000000000000000000000000000000000000000000000000000000000000000000000000000000000000000000000000000000000000000000000000000000000000000000000000000000000000000000000000000000000000000
310
00000000000000000000000000000000000000000000000000000000000000000000000000000000000000000000000000000000000000000000000000000000000000000000000000000000000000000000000000000000000000000000000000000000000000000000000000000000000000000000000000000000000000
310
00000000000000000000000000000000000000000000000000000000000000000000000000000000000000000000000000000000000000000000000000000000000000000000000000000000000000000000000000000000000000000000000000000000000000000000000000000000000000000000000000000000000000
310
00000000000000000000000000000000000000000000000000000000000000000000000000000000000000000000000000000000000000000000000000000000000000000000000000000000000000000000000000000000000000000000000000000000000000000000000000000000000000000000000000000000000000
310
00000000000000000000000000000000000000000000000000000000000000000000000000000000000000000000000000000000000000000000000000000000000000000000000000000000000000000000000000000000000000000000000000000000000000000000000000000000000000000000000000000000000000
310
00000000000000000000000000000000000000000000000000000000000000000000000000000000000000000000000000000000000000000000000000000000000000000000000000000000000000000000000000000000000000000000000000000000000000000000000000000000000000000000000000000000000000
310
00000000000000000000000000000000000000000000000000000000000000000000000000000000000000000000000000000000000000000000000000000000000000000000000000000000000000000000000000000000000000000000000000000000000000000000000000000000000000000000000000000000000000
310
00000000000000000000000000000000000000000000000000000000000000000000000000000000000000000000000000000000000000000000000000000000000000000000000000000000000000000000000000000000000000000000000000000000000000000000000000000000000000000000000000000000000000
310
00000000000000000000000000000000000000000000000000000000000000000000000000000000000000000000000000000000000000000000000000000000000000000000000000000000000000000000000000000000000000000000000000000000000000000000000000000000000000000000000000000000000000
310
00000000000000000000000000000000000000000000000000000000000000000000000000000000000000000000000000000000000000000000000000000000000000000000000000000000000000000000000000000000000000000000000000000000000000000000000000000000000000000000000000000000000000
310
00000000000000000000000000000000000000000000000000000000000000000000000000000000000000000000000000000000000000000000000000000000000000000000000000000000000000000000000000000000000000000000000000000000000000000000000000000000000000000000000000000000000000
310
00000000000000000000000000000000000000000000000000000000000000000000000000000000000000000000000000000000000000000000000000000000000000000000000000000000000000000000000000000000000000000000000000000000000000000000000000000000000000000000000000000000000000
310
00000000000000000000000000000000000000000000000000000000000000000000000000000000000000000000000000000000000000000000000000000000000000000000000000000000000000000000000000000000000000000000000000000000000000000000000000000000000000000000000000000000000000
310
00000000000000000000000000000000000000000000000000000000000000000000000000000000000000000000000000000000000000000000000000000000000000000000000000000000000000000000000000000000000000000000000000000000000000000000000000000000000000000000000000000000000000
310
00000000000000000000000000000000000000000000000000000000000000000000000000000000000000000000000000000000000000000000000000000000000000000000000000000000000000000000000000000000000000000000000000000000000000000000000000000000000000000000000000000000000000
310
00000000000000000000000000000000000000000000000000000000000000000000000000000000000000000000000000000000000000000000000000000000000000000000000000000000000000000000000000000000000000000000000000000000000000000000000000000000000000000000000000000000000000
310
00000000000000000000000000000000000000000000000000000000000000000000000000000000000000000000000000000000000000000000000000000000000000000000000000000000000000000000000000000000000000000000000000000000000000000000000000000000000000000000000000000000000000
310
00000000000000000000000000000000000000000000000000000000000000000000000000000000000000000000000000000000000000000000000000000000000000000000000000000000000000000000000000000000000000000000000000000000000000000000000000000000000000000000000000000000000000
310
00000000000000000000000000000000000000000000000000000000000000000000000000000000000000000000000000000000000000000000000000000000000000000000000000000000000000000000000000000000000000000000000000000000000000000000000000000000000000000000000000000000000000
310
00000000000000000000000000000000000000000000000000000000000000000000000000000000000000000000000000000000000000000000000000000000000000000000000000000000000000000000000000000000000000000000000000000000000000000000000000000000000000000000000000000000000000
310
00000000000000000000000000000000000000000000000000000000000000000000000000000000000000000000000000000000000000000000000000000000000000000000000000000000000000000000000000000000000000000000000000000000000000000000000000000000000000000000000000000000000000
310
00000000000000000000000000000000000000000000000000000000000000000000000000000000000000000000000000000000000000000000000000000000000000000000000000000000000000000000000000000000000000000000000000000000000000000000000000000000000000000000000000000000000000
310
00000000000000000000000000000000000000000000000000000000000000000000000000000000000000000000000000000000000000000000000000000000000000000000000000000000000000000000000000000000000000000000000000000000000000000000000000000000000000000000000000000000000000
310
0000000000
  0
XRECORD
  5
516
102
{ACAD_REACTORS
330
1A
102
}
330
1A
100
AcDbXrecord
280
     1
102
MATERIAL
148
0.0
149
0.0
149
0.0
 93
        0
 94
      127
282
     0
 72
     0
 77
     0
171
     0
175
     0
179
     0
273
     0
  0
XRECORD
  5
1C
102
{ACAD_REACTORS
330
1A
102
}
330
1A
100
AcDbXrecord
280
     1
270
     1
271
     1
  0
XRECORD
  5
1B
102
{ACAD_REACTORS
330
1A
102
}
330
1A
100
AcDbXrecord
280
     1
270
     1
271
     1
  0
XRECORD
  5
1F
102
{ACAD_REACTORS
330
1A
102
}
330
1A
100
AcDbXrecord
280
     1
270
     1
271
     1
  0
XRECORD
  5
1E
102
{ACAD_REACTORS
330
1A
102
}
330
1A
100
AcDbXrecord
280
     1
270
     1
271
     1
  0
XRECORD
  5
20
102
{ACAD_REACTORS
330
1A
102
}
330
1A
100
AcDbXrecord
280
     1
270
     1
271
     1
  0
XRECORD
  5
1D
102
{ACAD_REACTORS
330
1A
102
}
330
1A
100
AcDbXrecord
280
     1
270
     1
271
     1
  0
XRECORD
  5
515
102
{ACAD_REACTORS
330
12
102
}
330
12
100
AcDbXrecord
280
     1
102
MATERIAL
148
0.0
149
0.0
149
0.0
 93
        0
 94
      127
282
     0
 72
     0
 77
     0
171
     0
175
     0
179
     0
273
     0
  0
XRECORD
  5
14
102
{ACAD_REACTORS
330
12
102
}
330
12
100
AcDbXrecord
280
     1
270
     1
271
     1
  0
XRECORD
  5
13
102
{ACAD_REACTORS
330
12
102
}
330
12
100
AcDbXrecord
280
     1
270
     1
271
     1
  0
XRECORD
  5
17
102
{ACAD_REACTORS
330
12
102
}
330
12
100
AcDbXrecord
280
     1
270
     1
271
     1
  0
XRECORD
  5
16
102
{ACAD_REACTORS
330
12
102
}
330
12
100
AcDbXrecord
280
     1
270
     1
271
     1
  0
XRECORD
  5
18
102
{ACAD_REACTORS
330
12
102
}
330
12
100
AcDbXrecord
280
     1
270
     1
271
     1
  0
XRECORD
  5
15
102
{ACAD_REACTORS
330
12
102
}
330
12
100
AcDbXrecord
280
     1
270
     1
271
     1
  0
XRECORD
  5
517
102
{ACAD_REACTORS
330
22
102
}
330
22
100
AcDbXrecord
280
     1
102
MATERIAL
148
0.0
149
0.0
149
0.0
 93
        0
 94
      127
282
     0
 72
     0
 77
     0
171
     0
175
     0
179
     0
273
     0
  0
XRECORD
  5
24
102
{ACAD_REACTORS
330
22
102
}
330
22
100
AcDbXrecord
280
     1
270
     1
271
     1
  0
XRECORD
  5
23
102
{ACAD_REACTORS
330
22
102
}
330
22
100
AcDbXrecord
280
     1
270
     1
271
     1
  0
XRECORD
  5
27
102
{ACAD_REACTORS
330
22
102
}
330
22
100
AcDbXrecord
280
     1
270
     1
271
     1
  0
XRECORD
  5
26
102
{ACAD_REACTORS
330
22
102
}
330
22
100
AcDbXrecord
280
     1
270
     1
271
     1
  0
XRECORD
  5
28
102
{ACAD_REACTORS
330
22
102
}
330
22
100
AcDbXrecord
280
     1
270
     1
271
     1
  0
XRECORD
  5
25
102
{ACAD_REACTORS
330
22
102
}
330
22
100
AcDbXrecord
280
     1
270
     1
271
     1
  0
CELLSTYLEMAP
  5
601
102
{ACAD_REACTORS
330
511
102
}
330
511
100
AcDbCellStyleMap
 90
        3
300
CELLSTYLE
  1
TABLEFORMAT_BEGIN
 90
        5
170
     1
 91
        0
 92
    32768
 62
   257
 93
        1
300
CONTENTFORMAT
  1
CONTENTFORMAT_BEGIN
 90
        0
 91
        0
 92
      512
 93
        0
300

 40
0.0
140
1.0
 94
        5
 62
     0
340
55
144
0.25
309
CONTENTFORMAT_END
171
     1
301
MARGIN
  1
CELLMARGIN_BEGIN
 40
0.06
 40
0.06
 40
0.06
 40
0.06
 40
0.18
 40
0.18
309
CELLMARGIN_END
 94
        6
 95
        1
302
GRIDFORMAT
  1
GRIDFORMAT_BEGIN
 90
        0
 91
        1
 62
     0
 92
       -2
340
0
 93
        0
 40
0.045
309
GRIDFORMAT_END
 95
        2
302
GRIDFORMAT
  1
GRIDFORMAT_BEGIN
 90
        0
 91
        1
 62
     0
 92
       -2
340
0
 93
        0
 40
0.045
309
GRIDFORMAT_END
 95
        4
302
GRIDFORMAT
  1
GRIDFORMAT_BEGIN
 90
        0
 91
        1
 62
     0
 92
       -2
340
0
 93
        0
 40
0.045
309
GRIDFORMAT_END
 95
        8
302
GRIDFORMAT
  1
GRIDFORMAT_BEGIN
 90
        0
 91
        1
 62
     0
 92
       -2
340
0
 93
        0
 40
0.045
309
GRIDFORMAT_END
 95
       16
302
GRIDFORMAT
  1
GRIDFORMAT_BEGIN
 90
        0
 91
        1
 62
     0
 92
       -2
340
0
 93
        0
 40
0.045
309
GRIDFORMAT_END
 95
       32
302
GRIDFORMAT
  1
GRIDFORMAT_BEGIN
 90
        0
 91
        1
 62
     0
 92
       -2
340
0
 93
        0
 40
0.045
309
GRIDFORMAT_END
309
TABLEFORMAT_END
  1
CELLSTYLE_BEGIN
 90
        1
 91
        1
300
_TITLE
309
CELLSTYLE_END
300
CELLSTYLE
  1
TABLEFORMAT_BEGIN
 90
        5
170
     1
 91
        0
 92
        0
 62
   257
 93
        1
300
CONTENTFORMAT
  1
CONTENTFORMAT_BEGIN
 90
        0
 91
        0
 92
      512
 93
        0
300

 40
0.0
140
1.0
 94
        5
 62
     0
340
55
144
0.18
309
CONTENTFORMAT_END
171
     1
301
MARGIN
  1
CELLMARGIN_BEGIN
 40
0.06
 40
0.06
 40
0.06
 40
0.06
 40
0.18
 40
0.18
309
CELLMARGIN_END
 94
        6
 95
        1
302
GRIDFORMAT
  1
GRIDFORMAT_BEGIN
 90
        0
 91
        1
 62
     0
 92
       -2
340
0
 93
        0
 40
0.045
309
GRIDFORMAT_END
 95
        2
302
GRIDFORMAT
  1
GRIDFORMAT_BEGIN
 90
        0
 91
        1
 62
     0
 92
       -2
340
0
 93
        0
 40
0.045
309
GRIDFORMAT_END
 95
        4
302
GRIDFORMAT
  1
GRIDFORMAT_BEGIN
 90
        0
 91
        1
 62
     0
 92
       -2
340
0
 93
        0
 40
0.045
309
GRIDFORMAT_END
 95
        8
302
GRIDFORMAT
  1
GRIDFORMAT_BEGIN
 90
        0
 91
        1
 62
     0
 92
       -2
340
0
 93
        0
 40
0.045
309
GRIDFORMAT_END
 95
       16
302
GRIDFORMAT
  1
GRIDFORMAT_BEGIN
 90
        0
 91
        1
 62
     0
 92
       -2
340
0
 93
        0
 40
0.045
309
GRIDFORMAT_END
 95
       32
302
GRIDFORMAT
  1
GRIDFORMAT_BEGIN
 90
        0
 91
        1
 62
     0
 92
       -2
340
0
 93
        0
 40
0.045
309
GRIDFORMAT_END
309
TABLEFORMAT_END
  1
CELLSTYLE_BEGIN
 90
        2
 91
        1
300
_HEADER
309
CELLSTYLE_END
300
CELLSTYLE
  1
TABLEFORMAT_BEGIN
 90
        5
170
     1
 91
        0
 92
        0
 62
   257
 93
        1
300
CONTENTFORMAT
  1
CONTENTFORMAT_BEGIN
 90
        0
 91
        0
 92
      512
 93
        0
300

 40
0.0
140
1.0
 94
        2
 62
     0
340
55
144
0.18
309
CONTENTFORMAT_END
171
     1
301
MARGIN
  1
CELLMARGIN_BEGIN
 40
0.06
 40
0.06
 40
0.06
 40
0.06
 40
0.18
 40
0.18
309
CELLMARGIN_END
 94
        6
 95
        1
302
GRIDFORMAT
  1
GRIDFORMAT_BEGIN
 90
        0
 91
        1
 62
     0
 92
       -2
340
0
 93
        0
 40
0.045
309
GRIDFORMAT_END
 95
        2
302
GRIDFORMAT
  1
GRIDFORMAT_BEGIN
 90
        0
 91
        1
 62
     0
 92
       -2
340
0
 93
        0
 40
0.045
309
GRIDFORMAT_END
 95
        4
302
GRIDFORMAT
  1
GRIDFORMAT_BEGIN
 90
        0
 91
        1
 62
     0
 92
       -2
340
0
 93
        0
 40
0.045
309
GRIDFORMAT_END
 95
        8
302
GRIDFORMAT
  1
GRIDFORMAT_BEGIN
 90
        0
 91
        1
 62
     0
 92
       -2
340
0
 93
        0
 40
0.045
309
GRIDFORMAT_END
 95
       16
302
GRIDFORMAT
  1
GRIDFORMAT_BEGIN
 90
        0
 91
        1
 62
     0
 92
       -2
340
0
 93
        0
 40
0.045
309
GRIDFORMAT_END
 95
       32
302
GRIDFORMAT
  1
GRIDFORMAT_BEGIN
 90
        0
 91
        1
 62
     0
 92
       -2
340
0
 93
        0
 40
0.045
309
GRIDFORMAT_END
309
TABLEFORMAT_END
  1
CELLSTYLE_BEGIN
 90
        3
 91
        2
300
_DATA
309
CELLSTYLE_END
  0
XRECORD
  5
633
102
{ACAD_REACTORS
330
511
102
}
330
511
100
AcDbXrecord
280
     1
102
ACAD_ROUNDTRIP_PRE2007_TABLESTYLE
 90
      512
 91
        0
  1

 92
      512
 93
        0
  2

 94
      512
 95
        0
  3

  0
XRECORD
  5
60E
102
{ACAD_REACTORS
330
60D
102
}
330
60D
100
AcDbXrecord
280
     1
102
RTVSPropertyOp0
 70
     1
102
RTVSPropertyOp1
 70
     1
102
RTVSPropertyOp2
 70
     1
102
RTVSPropertyOp3
 70
     1
102
RTVSPropertyOp4
 70
     1
102
RTVSPropertyOp5
 70
     1
102
RTVSPropertyOp6
 70
     1
102
RTVSPropertyOp7
 70
     1
102
RTVSPropertyOp8
 70
     1
102
RTVSPropertyOp9
 70
     1
102
RTVSPropertyOp10
 70
     1
102
RTVSPropertyOp11
 70
     1
102
RTVSPropertyOp12
 70
     1
102
RTVSPropertyOp13
 70
     1
102
RTVSPropertyOp14
 70
     1
102
RTVSPropertyOp15
 70
     1
102
RTVSPropertyOp16
 70
     1
102
RTVSPropertyOp17
 70
     1
102
RTVSPropertyOp18
 70
     1
102
RTVSPropertyOp19
 70
     1
102
RTVSPropertyOp20
 70
     1
102
RTVSPropertyOp21
 70
     1
102
RTVSPropertyOp22
 70
     1
102
RTVSPropertyOp23
 70
     1
102
RTVSPropertyOp24
 70
     1
102
RTVSPropertyOp25
 70
     1
102
RTVSPropertyOp26
 70
     1
102
RTVSPropertyOp27
 70
     1
102
RTVSPropertyOp28
 70
     1
102
RTVSPropertyOp29
 70
     1
102
RTVSPropertyOp30
 70
     1
102
RTVSPropertyOp31
 70
     1
102
RTVSPropertyOp32
 70
     1
  0
XRECORD
  5
60C
102
{ACAD_REACTORS
330
60B
102
}
330
60B
100
AcDbXrecord
280
     1
102
RTVSPropertyOp0
 70
     1
102
RTVSPropertyOp1
 70
     1
102
RTVSPropertyOp2
 70
     1
102
RTVSPropertyOp3
 70
     1
102
RTVSPropertyOp4
 70
     1
102
RTVSPropertyOp5
 70
     1
102
RTVSPropertyOp6
 70
     1
102
RTVSPropertyOp7
 70
     1
102
RTVSPropertyOp8
 70
     1
102
RTVSPropertyOp9
 70
     1
102
RTVSPropertyOp10
 70
     1
102
RTVSPropertyOp11
 70
     1
102
RTVSPropertyOp12
 70
     1
102
RTVSPropertyOp13
 70
     1
102
RTVSPropertyOp14
 70
     1
102
RTVSPropertyOp15
 70
     1
102
RTVSPropertyOp16
 70
     1
102
RTVSPropertyOp17
 70
     1
102
RTVSPropertyOp18
 70
     1
102
RTVSPropertyOp19
 70
     1
102
RTVSPropertyOp20
 70
     1
102
RTVSPropertyOp21
 70
     1
102
RTVSPropertyOp22
 70
     1
102
RTVSPropertyOp23
 70
     1
102
RTVSPropertyOp24
 70
     1
102
RTVSPropertyOp25
 70
     1
102
RTVSPropertyOp26
 70
     1
102
RTVSPropertyOp27
 70
     1
102
RTVSPropertyOp28
 70
     1
102
RTVSPropertyOp29
 70
     1
102
RTVSPropertyOp30
 70
     1
102
RTVSPropertyOp31
 70
     1
102
RTVSPropertyOp32
 70
     1
  0
XRECORD
  5
61A
102
{ACAD_REACTORS
330
619
102
}
330
619
100
AcDbXrecord
280
     1
102
RTVSPropertyOp0
 70
     1
102
RTVSPropertyOp1
 70
     1
102
RTVSPropertyOp2
 70
     1
102
RTVSPropertyOp3
 70
     1
102
RTVSPropertyOp4
 70
     1
102
RTVSPropertyOp5
 70
     1
102
RTVSPropertyOp6
 70
     1
102
RTVSPropertyOp7
 70
     1
102
RTVSPropertyOp8
 70
     1
102
RTVSPropertyOp9
 70
     1
102
RTVSPropertyOp10
 70
     1
102
RTVSPropertyOp11
 70
     1
102
RTVSPropertyOp12
 70
     1
102
RTVSPropertyOp13
 70
     1
102
RTVSPropertyOp14
 70
     1
102
RTVSPropertyOp15
 70
     1
102
RTVSPropertyOp16
 70
     1
102
RTVSPropertyOp17
 70
     1
102
RTVSPropertyOp18
 70
     1
102
RTVSPropertyOp19
 70
     1
102
RTVSPropertyOp20
 70
     1
102
RTVSPropertyOp21
 70
     1
102
RTVSPropertyOp22
 70
     1
102
RTVSPropertyOp23
 70
     1
102
RTVSPropertyOp24
 70
     1
102
RTVSPropertyOp25
 70
     1
102
RTVSPropertyOp26
 70
     1
102
RTVSPropertyOp27
 70
     1
102
RTVSPropertyOp28
 70
     1
102
RTVSPropertyOp29
 70
     1
102
RTVSPropertyOp30
 70
     1
102
RTVSPropertyOp31
 70
     1
102
RTVSPropertyOp32
 70
     1
  0
XRECORD
  5
622
102
{ACAD_REACTORS
330
621
102
}
330
621
100
AcDbXrecord
280
     1
102
RTVSPropertyOp0
 70
     1
102
RTVSPropertyOp1
 70
     1
102
RTVSPropertyOp2
 70
     1
102
RTVSPropertyOp3
 70
     1
102
RTVSPropertyOp4
 70
     1
102
RTVSPropertyOp5
 70
     1
102
RTVSPropertyOp6
 70
     1
102
RTVSPropertyOp7
 70
     1
102
RTVSPropertyOp8
 70
     1
102
RTVSPropertyOp9
 70
     1
102
RTVSPropertyOp10
 70
     1
102
RTVSPropertyOp11
 70
     1
102
RTVSPropertyOp12
 70
     1
102
RTVSPropertyOp13
 70
     1
102
RTVSPropertyOp14
 70
     1
102
RTVSPropertyOp15
 70
     1
102
RTVSPropertyOp16
 70
     1
102
RTVSPropertyOp17
 70
     1
102
RTVSPropertyOp18
 70
     1
102
RTVSPropertyOp19
 70
     1
102
RTVSPropertyOp20
 70
     1
102
RTVSPropertyOp21
 70
     1
102
RTVSPropertyOp22
 70
     1
102
RTVSPropertyOp23
 70
     1
102
RTVSPropertyOp24
 70
     1
102
RTVSPropertyOp25
 70
     1
102
RTVSPropertyOp26
 70
     1
102
RTVSPropertyOp27
 70
     1
102
RTVSPropertyOp28
 70
     1
102
RTVSPropertyOp29
 70
     1
102
RTVSPropertyOp30
 70
     1
102
RTVSPropertyOp31
 70
     1
102
RTVSPropertyOp32
 70
     1
  0
XRECORD
  5
614
102
{ACAD_REACTORS
330
613
102
}
330
613
100
AcDbXrecord
280
     1
102
RTVSPropertyOp0
 70
     1
102
RTVSPropertyOp1
 70
     1
102
RTVSPropertyOp2
 70
     1
102
RTVSPropertyOp3
 70
     1
102
RTVSPropertyOp4
 70
     1
102
RTVSPropertyOp5
 70
     1
102
RTVSPropertyOp6
 70
     1
102
RTVSPropertyOp7
 70
     1
102
RTVSPropertyOp8
 70
     1
102
RTVSPropertyOp9
 70
     1
102
RTVSPropertyOp10
 70
     1
102
RTVSPropertyOp11
 70
     1
102
RTVSPropertyOp12
 70
     1
102
RTVSPropertyOp13
 70
     1
102
RTVSPropertyOp14
 70
     1
102
RTVSPropertyOp15
 70
     1
102
RTVSPropertyOp16
 70
     1
102
RTVSPropertyOp17
 70
     1
102
RTVSPropertyOp18
 70
     1
102
RTVSPropertyOp19
 70
     1
102
RTVSPropertyOp20
 70
     1
102
RTVSPropertyOp21
 70
     1
102
RTVSPropertyOp22
 70
     1
102
RTVSPropertyOp23
 70
     1
102
RTVSPropertyOp24
 70
     1
102
RTVSPropertyOp25
 70
     1
102
RTVSPropertyOp26
 70
     1
102
RTVSPropertyOp27
 70
     1
102
RTVSPropertyOp28
 70
     1
102
RTVSPropertyOp29
 70
     1
102
RTVSPropertyOp30
 70
     1
102
RTVSPropertyOp31
 70
     1
102
RTVSPropertyOp32
 70
     1
  0
XRECORD
  5
618
102
{ACAD_REACTORS
330
617
102
}
330
617
100
AcDbXrecord
280
     1
102
RTVSPropertyOp0
 70
     1
102
RTVSPropertyOp1
 70
     1
102
RTVSPropertyOp2
 70
     1
102
RTVSPropertyOp3
 70
     1
102
RTVSPropertyOp4
 70
     1
102
RTVSPropertyOp5
 70
     1
102
RTVSPropertyOp6
 70
     1
102
RTVSPropertyOp7
 70
     1
102
RTVSPropertyOp8
 70
     1
102
RTVSPropertyOp9
 70
     1
102
RTVSPropertyOp10
 70
     1
102
RTVSPropertyOp11
 70
     1
102
RTVSPropertyOp12
 70
     1
102
RTVSPropertyOp13
 70
     1
102
RTVSPropertyOp14
 70
     1
102
RTVSPropertyOp15
 70
     1
102
RTVSPropertyOp16
 70
     1
102
RTVSPropertyOp17
 70
     1
102
RTVSPropertyOp18
 70
     1
102
RTVSPropertyOp19
 70
     1
102
RTVSPropertyOp20
 70
     1
102
RTVSPropertyOp21
 70
     1
102
RTVSPropertyOp22
 70
     1
102
RTVSPropertyOp23
 70
     1
102
RTVSPropertyOp24
 70
     1
102
RTVSPropertyOp25
 70
     1
102
RTVSPropertyOp26
 70
     1
102
RTVSPropertyOp27
 70
     1
102
RTVSPropertyOp28
 70
     1
102
RTVSPropertyOp29
 70
     1
102
RTVSPropertyOp30
 70
     1
102
RTVSPropertyOp31
 70
     1
102
RTVSPropertyOp32
 70
     1
  0
XRECORD
  5
632
102
{ACAD_REACTORS
330
631
102
}
330
631
100
AcDbXrecord
280
     1
102
RTVSPropertyOp0
 70
     0
102
RTVSPropertyOp1
 70
     0
102
RTVSPropertyOp2
 70
     0
102
RTVSPropertyOp3
 70
     0
102
RTVSPropertyOp4
 70
     0
102
RTVSPropertyOp5
 70
     0
102
RTVSPropertyOp6
 70
     0
102
RTVSPropertyOp7
 70
     0
102
RTVSPropertyOp8
 70
     0
102
RTVSPropertyOp9
 70
     0
102
RTVSPropertyOp10
 70
     0
102
RTVSPropertyOp11
 70
     0
102
RTVSPropertyOp12
 70
     0
102
RTVSPropertyOp13
 70
     0
102
RTVSPropertyOp14
 70
     2
102
RTVSPropertyOp15
 70
     0
102
RTVSPropertyOp16
 70
     0
102
RTVSPropertyOp17
 70
     0
102
RTVSPropertyOp18
 70
     0
102
RTVSPropertyOp19
 70
     0
102
RTVSPropertyOp20
 70
     0
102
RTVSPropertyOp21
 70
     0
102
RTVSPropertyOp22
 70
     0
102
RTVSPropertyOp23
 70
     0
102
RTVSPropertyOp24
 70
     0
102
RTVSPropertyOp25
 70
     0
102
RTVSPropertyOp26
 70
     0
102
RTVSPropertyOp27
 70
     0
102
RTVSPropertyOp28
 70
     0
102
RTVSPropertyOp29
 70
     0
102
RTVSPropertyOp30
 70
     0
102
RTVSPropertyOp31
 70
     0
102
RTVSPropertyOp32
 70
     0
  0
XRECORD
  5
620
102
{ACAD_REACTORS
330
61F
102
}
330
61F
100
AcDbXrecord
280
     1
102
RTVSPropertyOp0
 70
     1
102
RTVSPropertyOp1
 70
     1
102
RTVSPropertyOp2
 70
     1
102
RTVSPropertyOp3
 70
     1
102
RTVSPropertyOp4
 70
     1
102
RTVSPropertyOp5
 70
     1
102
RTVSPropertyOp6
 70
     1
102
RTVSPropertyOp7
 70
     1
102
RTVSPropertyOp8
 70
     1
102
RTVSPropertyOp9
 70
     1
102
RTVSPropertyOp10
 70
     1
102
RTVSPropertyOp11
 70
     1
102
RTVSPropertyOp12
 70
     1
102
RTVSPropertyOp13
 70
     1
102
RTVSPropertyOp14
 70
     1
102
RTVSPropertyOp15
 70
     1
102
RTVSPropertyOp16
 70
     1
102
RTVSPropertyOp17
 70
     1
102
RTVSPropertyOp18
 70
     1
102
RTVSPropertyOp19
 70
     1
102
RTVSPropertyOp20
 70
     1
102
RTVSPropertyOp21
 70
     1
102
RTVSPropertyOp22
 70
     1
102
RTVSPropertyOp23
 70
     1
102
RTVSPropertyOp24
 70
     1
102
RTVSPropertyOp25
 70
     1
102
RTVSPropertyOp26
 70
     1
102
RTVSPropertyOp27
 70
     1
102
RTVSPropertyOp28
 70
     1
102
RTVSPropertyOp29
 70
     1
102
RTVSPropertyOp30
 70
     1
102
RTVSPropertyOp31
 70
     1
102
RTVSPropertyOp32
 70
     1
  0
XRECORD
  5
604
102
{ACAD_REACTORS
330
603
102
}
330
603
100
AcDbXrecord
280
     1
102
RTVSPropertyOp0
 70
     1
102
RTVSPropertyOp1
 70
     1
102
RTVSPropertyOp2
 70
     1
102
RTVSPropertyOp3
 70
     1
102
RTVSPropertyOp4
 70
     1
102
RTVSPropertyOp5
 70
     1
102
RTVSPropertyOp6
 70
     1
102
RTVSPropertyOp7
 70
     1
102
RTVSPropertyOp8
 70
     1
102
RTVSPropertyOp9
 70
     1
102
RTVSPropertyOp10
 70
     1
102
RTVSPropertyOp11
 70
     1
102
RTVSPropertyOp12
 70
     1
102
RTVSPropertyOp13
 70
     1
102
RTVSPropertyOp14
 70
     1
102
RTVSPropertyOp15
 70
     1
102
RTVSPropertyOp16
 70
     1
102
RTVSPropertyOp17
 70
     1
102
RTVSPropertyOp18
 70
     1
102
RTVSPropertyOp19
 70
     1
102
RTVSPropertyOp20
 70
     1
102
RTVSPropertyOp21
 70
     1
102
RTVSPropertyOp22
 70
     1
102
RTVSPropertyOp23
 70
     1
102
RTVSPropertyOp24
 70
     1
102
RTVSPropertyOp25
 70
     1
102
RTVSPropertyOp26
 70
     1
102
RTVSPropertyOp27
 70
     1
102
RTVSPropertyOp28
 70
     1
102
RTVSPropertyOp29
 70
     1
102
RTVSPropertyOp30
 70
     1
102
RTVSPropertyOp31
 70
     1
102
RTVSPropertyOp32
 70
     1
  0
XRECORD
  5
606
102
{ACAD_REACTORS
330
605
102
}
330
605
100
AcDbXrecord
280
     1
102
RTVSPropertyOp0
 70
     1
102
RTVSPropertyOp1
 70
     1
102
RTVSPropertyOp2
 70
     1
102
RTVSPropertyOp3
 70
     1
102
RTVSPropertyOp4
 70
     1
102
RTVSPropertyOp5
 70
     1
102
RTVSPropertyOp6
 70
     1
102
RTVSPropertyOp7
 70
     1
102
RTVSPropertyOp8
 70
     1
102
RTVSPropertyOp9
 70
     1
102
RTVSPropertyOp10
 70
     1
102
RTVSPropertyOp11
 70
     1
102
RTVSPropertyOp12
 70
     1
102
RTVSPropertyOp13
 70
     1
102
RTVSPropertyOp14
 70
     1
102
RTVSPropertyOp15
 70
     1
102
RTVSPropertyOp16
 70
     1
102
RTVSPropertyOp17
 70
     1
102
RTVSPropertyOp18
 70
     1
102
RTVSPropertyOp19
 70
     1
102
RTVSPropertyOp20
 70
     1
102
RTVSPropertyOp21
 70
     1
102
RTVSPropertyOp22
 70
     1
102
RTVSPropertyOp23
 70
     1
102
RTVSPropertyOp24
 70
     1
102
RTVSPropertyOp25
 70
     1
102
RTVSPropertyOp26
 70
     1
102
RTVSPropertyOp27
 70
     1
102
RTVSPropertyOp28
 70
     1
102
RTVSPropertyOp29
 70
     1
102
RTVSPropertyOp30
 70
     1
102
RTVSPropertyOp31
 70
     1
102
RTVSPropertyOp32
 70
     1
  0
XRECORD
  5
608
102
{ACAD_REACTORS
330
607
102
}
330
607
100
AcDbXrecord
280
     1
102
RTVSPropertyOp0
 70
     1
102
RTVSPropertyOp1
 70
     1
102
RTVSPropertyOp2
 70
     1
102
RTVSPropertyOp3
 70
     1
102
RTVSPropertyOp4
 70
     1
102
RTVSPropertyOp5
 70
     1
102
RTVSPropertyOp6
 70
     1
102
RTVSPropertyOp7
 70
     1
102
RTVSPropertyOp8
 70
     1
102
RTVSPropertyOp9
 70
     1
102
RTVSPropertyOp10
 70
     1
102
RTVSPropertyOp11
 70
     1
102
RTVSPropertyOp12
 70
     1
102
RTVSPropertyOp13
 70
     1
102
RTVSPropertyOp14
 70
     1
102
RTVSPropertyOp15
 70
     1
102
RTVSPropertyOp16
 70
     1
102
RTVSPropertyOp17
 70
     1
102
RTVSPropertyOp18
 70
     1
102
RTVSPropertyOp19
 70
     1
102
RTVSPropertyOp20
 70
     1
102
RTVSPropertyOp21
 70
     1
102
RTVSPropertyOp22
 70
     1
102
RTVSPropertyOp23
 70
     1
102
RTVSPropertyOp24
 70
     1
102
RTVSPropertyOp25
 70
     1
102
RTVSPropertyOp26
 70
     1
102
RTVSPropertyOp27
 70
     1
102
RTVSPropertyOp28
 70
     1
102
RTVSPropertyOp29
 70
     1
102
RTVSPropertyOp30
 70
     1
102
RTVSPropertyOp31
 70
     1
102
RTVSPropertyOp32
 70
     1
  0
XRECORD
  5
60A
102
{ACAD_REACTORS
330
609
102
}
330
609
100
AcDbXrecord
280
     1
102
RTVSPropertyOp0
 70
     1
102
RTVSPropertyOp1
 70
     1
102
RTVSPropertyOp2
 70
     1
102
RTVSPropertyOp3
 70
     1
102
RTVSPropertyOp4
 70
     1
102
RTVSPropertyOp5
 70
     1
102
RTVSPropertyOp6
 70
     1
102
RTVSPropertyOp7
 70
     1
102
RTVSPropertyOp8
 70
     1
102
RTVSPropertyOp9
 70
     1
102
RTVSPropertyOp10
 70
     1
102
RTVSPropertyOp11
 70
     1
102
RTVSPropertyOp12
 70
     1
102
RTVSPropertyOp13
 70
     1
102
RTVSPropertyOp14
 70
     1
102
RTVSPropertyOp15
 70
     1
102
RTVSPropertyOp16
 70
     1
102
RTVSPropertyOp17
 70
     1
102
RTVSPropertyOp18
 70
     1
102
RTVSPropertyOp19
 70
     1
102
RTVSPropertyOp20
 70
     1
102
RTVSPropertyOp21
 70
     1
102
RTVSPropertyOp22
 70
     1
102
RTVSPropertyOp23
 70
     1
102
RTVSPropertyOp24
 70
     1
102
RTVSPropertyOp25
 70
     1
102
RTVSPropertyOp26
 70
     1
102
RTVSPropertyOp27
 70
     1
102
RTVSPropertyOp28
 70
     1
102
RTVSPropertyOp29
 70
     1
102
RTVSPropertyOp30
 70
     1
102
RTVSPropertyOp31
 70
     1
102
RTVSPropertyOp32
 70
     1
  0
XRECORD
  5
612
102
{ACAD_REACTORS
330
611
102
}
330
611
100
AcDbXrecord
280
     1
102
RTVSPropertyOp0
 70
     1
102
RTVSPropertyOp1
 70
     1
102
RTVSPropertyOp2
 70
     1
102
RTVSPropertyOp3
 70
     1
102
RTVSPropertyOp4
 70
     1
102
RTVSPropertyOp5
 70
     1
102
RTVSPropertyOp6
 70
     1
102
RTVSPropertyOp7
 70
     1
102
RTVSPropertyOp8
 70
     1
102
RTVSPropertyOp9
 70
     1
102
RTVSPropertyOp10
 70
     1
102
RTVSPropertyOp11
 70
     1
102
RTVSPropertyOp12
 70
     1
102
RTVSPropertyOp13
 70
     1
102
RTVSPropertyOp14
 70
     1
102
RTVSPropertyOp15
 70
     1
102
RTVSPropertyOp16
 70
     1
102
RTVSPropertyOp17
 70
     1
102
RTVSPropertyOp18
 70
     1
102
RTVSPropertyOp19
 70
     1
102
RTVSPropertyOp20
 70
     1
102
RTVSPropertyOp21
 70
     1
102
RTVSPropertyOp22
 70
     1
102
RTVSPropertyOp23
 70
     1
102
RTVSPropertyOp24
 70
     1
102
RTVSPropertyOp25
 70
     1
102
RTVSPropertyOp26
 70
     1
102
RTVSPropertyOp27
 70
     1
102
RTVSPropertyOp28
 70
     1
102
RTVSPropertyOp29
 70
     1
102
RTVSPropertyOp30
 70
     1
102
RTVSPropertyOp31
 70
     1
102
RTVSPropertyOp32
 70
     1
  0
XRECORD
  5
62E
102
{ACAD_REACTORS
330
62D
102
}
330
62D
100
AcDbXrecord
280
     1
102
RTVSPropertyOp0
 70
     0
102
RTVSPropertyOp1
 70
     0
102
RTVSPropertyOp2
 70
     0
102
RTVSPropertyOp3
 70
     0
102
RTVSPropertyOp4
 70
     0
102
RTVSPropertyOp5
 70
     0
102
RTVSPropertyOp6
 70
     0
102
RTVSPropertyOp7
 70
     0
102
RTVSPropertyOp8
 70
     0
102
RTVSPropertyOp9
 70
     0
102
RTVSPropertyOp10
 70
     0
102
RTVSPropertyOp11
 70
     0
102
RTVSPropertyOp12
 70
     0
102
RTVSPropertyOp13
 70
     0
102
RTVSPropertyOp14
 70
     2
102
RTVSPropertyOp15
 70
     0
102
RTVSPropertyOp16
 70
     0
102
RTVSPropertyOp17
 70
     0
102
RTVSPropertyOp18
 70
     0
102
RTVSPropertyOp19
 70
     0
102
RTVSPropertyOp20
 70
     0
102
RTVSPropertyOp21
 70
     0
102
RTVSPropertyOp22
 70
     0
102
RTVSPropertyOp23
 70
     0
102
RTVSPropertyOp24
 70
     0
102
RTVSPropertyOp25
 70
     0
102
RTVSPropertyOp26
 70
     0
102
RTVSPropertyOp27
 70
     0
102
RTVSPropertyOp28
 70
     0
102
RTVSPropertyOp29
 70
     0
102
RTVSPropertyOp30
 70
     0
102
RTVSPropertyOp31
 70
     0
102
RTVSPropertyOp32
 70
     0
  0
XRECORD
  5
61E
102
{ACAD_REACTORS
330
61D
102
}
330
61D
100
AcDbXrecord
280
     1
102
RTVSPropertyOp0
 70
     1
102
RTVSPropertyOp1
 70
     1
102
RTVSPropertyOp2
 70
     1
102
RTVSPropertyOp3
 70
     1
102
RTVSPropertyOp4
 70
     1
102
RTVSPropertyOp5
 70
     1
102
RTVSPropertyOp6
 70
     1
102
RTVSPropertyOp7
 70
     1
102
RTVSPropertyOp8
 70
     1
102
RTVSPropertyOp9
 70
     1
102
RTVSPropertyOp10
 70
     1
102
RTVSPropertyOp11
 70
     1
102
RTVSPropertyOp12
 70
     1
102
RTVSPropertyOp13
 70
     1
102
RTVSPropertyOp14
 70
     1
102
RTVSPropertyOp15
 70
     1
102
RTVSPropertyOp16
 70
     1
102
RTVSPropertyOp17
 70
     1
102
RTVSPropertyOp18
 70
     1
102
RTVSPropertyOp19
 70
     1
102
RTVSPropertyOp20
 70
     1
102
RTVSPropertyOp21
 70
     1
102
RTVSPropertyOp22
 70
     1
102
RTVSPropertyOp23
 70
     1
102
RTVSPropertyOp24
 70
     1
102
RTVSPropertyOp25
 70
     1
102
RTVSPropertyOp26
 70
     1
102
RTVSPropertyOp27
 70
     1
102
RTVSPropertyOp28
 70
     1
102
RTVSPropertyOp29
 70
     1
102
RTVSPropertyOp30
 70
     1
102
RTVSPropertyOp31
 70
     1
102
RTVSPropertyOp32
 70
     1
  0
XRECORD
  5
630
102
{ACAD_REACTORS
330
62F
102
}
330
62F
100
AcDbXrecord
280
     1
102
RTVSPropertyOp0
 70
     0
102
RTVSPropertyOp1
 70
     0
102
RTVSPropertyOp2
 70
     0
102
RTVSPropertyOp3
 70
     0
102
RTVSPropertyOp4
 70
     0
102
RTVSPropertyOp5
 70
     0
102
RTVSPropertyOp6
 70
     0
102
RTVSPropertyOp7
 70
     0
102
RTVSPropertyOp8
 70
     0
102
RTVSPropertyOp9
 70
     0
102
RTVSPropertyOp10
 70
     0
102
RTVSPropertyOp11
 70
     0
102
RTVSPropertyOp12
 70
     0
102
RTVSPropertyOp13
 70
     0
102
RTVSPropertyOp14
 70
     2
102
RTVSPropertyOp15
 70
     0
102
RTVSPropertyOp16
 70
     0
102
RTVSPropertyOp17
 70
     0
102
RTVSPropertyOp18
 70
     0
102
RTVSPropertyOp19
 70
     0
102
RTVSPropertyOp20
 70
     0
102
RTVSPropertyOp21
 70
     0
102
RTVSPropertyOp22
 70
     0
102
RTVSPropertyOp23
 70
     0
102
RTVSPropertyOp24
 70
     0
102
RTVSPropertyOp25
 70
     0
102
RTVSPropertyOp26
 70
     0
102
RTVSPropertyOp27
 70
     0
102
RTVSPropertyOp28
 70
     0
102
RTVSPropertyOp29
 70
     0
102
RTVSPropertyOp30
 70
     0
102
RTVSPropertyOp31
 70
     0
102
RTVSPropertyOp32
 70
     0
  0
XRECORD
  5
616
102
{ACAD_REACTORS
330
615
102
}
330
615
100
AcDbXrecord
280
     1
102
RTVSPropertyOp0
 70
     1
102
RTVSPropertyOp1
 70
     1
102
RTVSPropertyOp2
 70
     1
102
RTVSPropertyOp3
 70
     1
102
RTVSPropertyOp4
 70
     1
102
RTVSPropertyOp5
 70
     1
102
RTVSPropertyOp6
 70
     1
102
RTVSPropertyOp7
 70
     1
102
RTVSPropertyOp8
 70
     1
102
RTVSPropertyOp9
 70
     1
102
RTVSPropertyOp10
 70
     1
102
RTVSPropertyOp11
 70
     1
102
RTVSPropertyOp12
 70
     1
102
RTVSPropertyOp13
 70
     1
102
RTVSPropertyOp14
 70
     1
102
RTVSPropertyOp15
 70
     1
102
RTVSPropertyOp16
 70
     1
102
RTVSPropertyOp17
 70
     1
102
RTVSPropertyOp18
 70
     1
102
RTVSPropertyOp19
 70
     1
102
RTVSPropertyOp20
 70
     1
102
RTVSPropertyOp21
 70
     1
102
RTVSPropertyOp22
 70
     1
102
RTVSPropertyOp23
 70
     1
102
RTVSPropertyOp24
 70
     1
102
RTVSPropertyOp25
 70
     1
102
RTVSPropertyOp26
 70
     1
102
RTVSPropertyOp27
 70
     1
102
RTVSPropertyOp28
 70
     1
102
RTVSPropertyOp29
 70
     1
102
RTVSPropertyOp30
 70
     1
102
RTVSPropertyOp31
 70
     1
102
RTVSPropertyOp32
 70
     1
  0
XRECORD
  5
62C
102
{ACAD_REACTORS
330
62B
102
}
330
62B
100
AcDbXrecord
280
     1
102
RTVSPropertyOp0
 70
     1
102
RTVSPropertyOp1
 70
     1
102
RTVSPropertyOp2
 70
     1
102
RTVSPropertyOp3
 70
     1
102
RTVSPropertyOp4
 70
     1
102
RTVSPropertyOp5
 70
     1
102
RTVSPropertyOp6
 70
     1
102
RTVSPropertyOp7
 70
     1
102
RTVSPropertyOp8
 70
     1
102
RTVSPropertyOp9
 70
     1
102
RTVSPropertyOp10
 70
     1
102
RTVSPropertyOp11
 70
     1
102
RTVSPropertyOp12
 70
     1
102
RTVSPropertyOp13
 70
     1
102
RTVSPropertyOp14
 70
     1
102
RTVSPropertyOp15
 70
     1
102
RTVSPropertyOp16
 70
     1
102
RTVSPropertyOp17
 70
     1
102
RTVSPropertyOp18
 70
     1
102
RTVSPropertyOp19
 70
     1
102
RTVSPropertyOp20
 70
     1
102
RTVSPropertyOp21
 70
     1
102
RTVSPropertyOp22
 70
     1
102
RTVSPropertyOp23
 70
     1
102
RTVSPropertyOp24
 70
     1
102
RTVSPropertyOp25
 70
     1
102
RTVSPropertyOp26
 70
     1
102
RTVSPropertyOp27
 70
     1
102
RTVSPropertyOp28
 70
     1
102
RTVSPropertyOp29
 70
     1
102
RTVSPropertyOp30
 70
     1
102
RTVSPropertyOp31
 70
     1
102
RTVSPropertyOp32
 70
     1
  0
XRECORD
  5
62A
102
{ACAD_REACTORS
330
629
102
}
330
629
100
AcDbXrecord
280
     1
102
RTVSPropertyOp0
 70
     1
102
RTVSPropertyOp1
 70
     1
102
RTVSPropertyOp2
 70
     1
102
RTVSPropertyOp3
 70
     1
102
RTVSPropertyOp4
 70
     1
102
RTVSPropertyOp5
 70
     1
102
RTVSPropertyOp6
 70
     1
102
RTVSPropertyOp7
 70
     1
102
RTVSPropertyOp8
 70
     1
102
RTVSPropertyOp9
 70
     1
102
RTVSPropertyOp10
 70
     1
102
RTVSPropertyOp11
 70
     1
102
RTVSPropertyOp12
 70
     1
102
RTVSPropertyOp13
 70
     1
102
RTVSPropertyOp14
 70
     1
102
RTVSPropertyOp15
 70
     1
102
RTVSPropertyOp16
 70
     1
102
RTVSPropertyOp17
 70
     1
102
RTVSPropertyOp18
 70
     1
102
RTVSPropertyOp19
 70
     1
102
RTVSPropertyOp20
 70
     1
102
RTVSPropertyOp21
 70
     1
102
RTVSPropertyOp22
 70
     1
102
RTVSPropertyOp23
 70
     1
102
RTVSPropertyOp24
 70
     1
102
RTVSPropertyOp25
 70
     1
102
RTVSPropertyOp26
 70
     1
102
RTVSPropertyOp27
 70
     1
102
RTVSPropertyOp28
 70
     1
102
RTVSPropertyOp29
 70
     1
102
RTVSPropertyOp30
 70
     1
102
RTVSPropertyOp31
 70
     1
102
RTVSPropertyOp32
 70
     1
  0
XRECORD
  5
624
102
{ACAD_REACTORS
330
623
102
}
330
623
100
AcDbXrecord
280
     1
102
RTVSPropertyOp0
 70
     1
102
RTVSPropertyOp1
 70
     1
102
RTVSPropertyOp2
 70
     1
102
RTVSPropertyOp3
 70
     1
102
RTVSPropertyOp4
 70
     1
102
RTVSPropertyOp5
 70
     1
102
RTVSPropertyOp6
 70
     1
102
RTVSPropertyOp7
 70
     1
102
RTVSPropertyOp8
 70
     1
102
RTVSPropertyOp9
 70
     1
102
RTVSPropertyOp10
 70
     1
102
RTVSPropertyOp11
 70
     1
102
RTVSPropertyOp12
 70
     1
102
RTVSPropertyOp13
 70
     1
102
RTVSPropertyOp14
 70
     1
102
RTVSPropertyOp15
 70
     1
102
RTVSPropertyOp16
 70
     1
102
RTVSPropertyOp17
 70
     1
102
RTVSPropertyOp18
 70
     1
102
RTVSPropertyOp19
 70
     1
102
RTVSPropertyOp20
 70
     1
102
RTVSPropertyOp21
 70
     1
102
RTVSPropertyOp22
 70
     1
102
RTVSPropertyOp23
 70
     1
102
RTVSPropertyOp24
 70
     1
102
RTVSPropertyOp25
 70
     1
102
RTVSPropertyOp26
 70
     1
102
RTVSPropertyOp27
 70
     1
102
RTVSPropertyOp28
 70
     1
102
RTVSPropertyOp29
 70
     1
102
RTVSPropertyOp30
 70
     1
102
RTVSPropertyOp31
 70
     1
102
RTVSPropertyOp32
 70
     1
  0
XRECORD
  5
626
102
{ACAD_REACTORS
330
625
102
}
330
625
100
AcDbXrecord
280
     1
102
RTVSPropertyOp0
 70
     1
102
RTVSPropertyOp1
 70
     1
102
RTVSPropertyOp2
 70
     1
102
RTVSPropertyOp3
 70
     1
102
RTVSPropertyOp4
 70
     1
102
RTVSPropertyOp5
 70
     1
102
RTVSPropertyOp6
 70
     1
102
RTVSPropertyOp7
 70
     1
102
RTVSPropertyOp8
 70
     1
102
RTVSPropertyOp9
 70
     1
102
RTVSPropertyOp10
 70
     1
102
RTVSPropertyOp11
 70
     1
102
RTVSPropertyOp12
 70
     1
102
RTVSPropertyOp13
 70
     1
102
RTVSPropertyOp14
 70
     1
102
RTVSPropertyOp15
 70
     1
102
RTVSPropertyOp16
 70
     1
102
RTVSPropertyOp17
 70
     1
102
RTVSPropertyOp18
 70
     1
102
RTVSPropertyOp19
 70
     1
102
RTVSPropertyOp20
 70
     1
102
RTVSPropertyOp21
 70
     1
102
RTVSPropertyOp22
 70
     1
102
RTVSPropertyOp23
 70
     1
102
RTVSPropertyOp24
 70
     1
102
RTVSPropertyOp25
 70
     1
102
RTVSPropertyOp26
 70
     1
102
RTVSPropertyOp27
 70
     1
102
RTVSPropertyOp28
 70
     1
102
RTVSPropertyOp29
 70
     1
102
RTVSPropertyOp30
 70
     1
102
RTVSPropertyOp31
 70
     1
102
RTVSPropertyOp32
 70
     1
  0
XRECORD
  5
61C
102
{ACAD_REACTORS
330
61B
102
}
330
61B
100
AcDbXrecord
280
     1
102
RTVSPropertyOp0
 70
     1
102
RTVSPropertyOp1
 70
     1
102
RTVSPropertyOp2
 70
     1
102
RTVSPropertyOp3
 70
     1
102
RTVSPropertyOp4
 70
     1
102
RTVSPropertyOp5
 70
     1
102
RTVSPropertyOp6
 70
     1
102
RTVSPropertyOp7
 70
     1
102
RTVSPropertyOp8
 70
     1
102
RTVSPropertyOp9
 70
     1
102
RTVSPropertyOp10
 70
     1
102
RTVSPropertyOp11
 70
     1
102
RTVSPropertyOp12
 70
     1
102
RTVSPropertyOp13
 70
     1
102
RTVSPropertyOp14
 70
     1
102
RTVSPropertyOp15
 70
     1
102
RTVSPropertyOp16
 70
     1
102
RTVSPropertyOp17
 70
     1
102
RTVSPropertyOp18
 70
     1
102
RTVSPropertyOp19
 70
     1
102
RTVSPropertyOp20
 70
     1
102
RTVSPropertyOp21
 70
     1
102
RTVSPropertyOp22
 70
     1
102
RTVSPropertyOp23
 70
     1
102
RTVSPropertyOp24
 70
     1
102
RTVSPropertyOp25
 70
     1
102
RTVSPropertyOp26
 70
     1
102
RTVSPropertyOp27
 70
     1
102
RTVSPropertyOp28
 70
     1
102
RTVSPropertyOp29
 70
     1
102
RTVSPropertyOp30
 70
     1
102
RTVSPropertyOp31
 70
     1
102
RTVSPropertyOp32
 70
     1
  0
XRECORD
  5
610
102
{ACAD_REACTORS
330
60F
102
}
330
60F
100
AcDbXrecord
280
     1
102
RTVSPropertyOp0
 70
     1
102
RTVSPropertyOp1
 70
     1
102
RTVSPropertyOp2
 70
     1
102
RTVSPropertyOp3
 70
     1
102
RTVSPropertyOp4
 70
     1
102
RTVSPropertyOp5
 70
     1
102
RTVSPropertyOp6
 70
     1
102
RTVSPropertyOp7
 70
     1
102
RTVSPropertyOp8
 70
     1
102
RTVSPropertyOp9
 70
     1
102
RTVSPropertyOp10
 70
     1
102
RTVSPropertyOp11
 70
     1
102
RTVSPropertyOp12
 70
     1
102
RTVSPropertyOp13
 70
     1
102
RTVSPropertyOp14
 70
     1
102
RTVSPropertyOp15
 70
     1
102
RTVSPropertyOp16
 70
     1
102
RTVSPropertyOp17
 70
     1
102
RTVSPropertyOp18
 70
     1
102
RTVSPropertyOp19
 70
     1
102
RTVSPropertyOp20
 70
     1
102
RTVSPropertyOp21
 70
     1
102
RTVSPropertyOp22
 70
     1
102
RTVSPropertyOp23
 70
     1
102
RTVSPropertyOp24
 70
     1
102
RTVSPropertyOp25
 70
     1
102
RTVSPropertyOp26
 70
     1
102
RTVSPropertyOp27
 70
     1
102
RTVSPropertyOp28
 70
     1
102
RTVSPropertyOp29
 70
     1
102
RTVSPropertyOp30
 70
     1
102
RTVSPropertyOp31
 70
     1
102
RTVSPropertyOp32
 70
     1
  0
XRECORD
  5
628
102
{ACAD_REACTORS
330
627
102
}
330
627
100
AcDbXrecord
280
     1
102
RTVSPropertyOp0
 70
     1
102
RTVSPropertyOp1
 70
     1
102
RTVSPropertyOp2
 70
     1
102
RTVSPropertyOp3
 70
     1
102
RTVSPropertyOp4
 70
     1
102
RTVSPropertyOp5
 70
     1
102
RTVSPropertyOp6
 70
     1
102
RTVSPropertyOp7
 70
     1
102
RTVSPropertyOp8
 70
     1
102
RTVSPropertyOp9
 70
     1
102
RTVSPropertyOp10
 70
     1
102
RTVSPropertyOp11
 70
     1
102
RTVSPropertyOp12
 70
     1
102
RTVSPropertyOp13
 70
     1
102
RTVSPropertyOp14
 70
     1
102
RTVSPropertyOp15
 70
     1
102
RTVSPropertyOp16
 70
     1
102
RTVSPropertyOp17
 70
     1
102
RTVSPropertyOp18
 70
     1
102
RTVSPropertyOp19
 70
     1
102
RTVSPropertyOp20
 70
     1
102
RTVSPropertyOp21
 70
     1
102
RTVSPropertyOp22
 70
     1
102
RTVSPropertyOp23
 70
     1
102
RTVSPropertyOp24
 70
     1
102
RTVSPropertyOp25
 70
     1
102
RTVSPropertyOp26
 70
     1
102
RTVSPropertyOp27
 70
     1
102
RTVSPropertyOp28
 70
     1
102
RTVSPropertyOp29
 70
     1
102
RTVSPropertyOp30
 70
     1
102
RTVSPropertyOp31
 70
     1
102
RTVSPropertyOp32
 70
     1
  0
ENDSEC
  0
EOF
